Guitar Tabs
song title    band name

Join Us Today!

Don't strum alone...
be a part of the largest online Christian music community. Browse thousands of guitar tabs and chat w/ musicians like yourself.


It's Free!

This tab has been rated a 3.75 out of 5 for accuracy. (4 votes)Sorry, but you must be logged in to rate this tab.
Click here to log-in, or you can click here to register.
(Registration is free)

All songs owned by corresponding publishing company. If you make copies of any song on this website, be sure to report your usage to CCLI.
Submitted by: little_seve

Band: Subseven
Song: Up To You
Album: Free To Conquer
Tuning: Drop D
Tabbed by: Daniel (little_seve2@hotmail.com)

 


Intro (0:00-0:20)

E---------------------------------
B---------------------------------
G---------------------------------   (x4)
D---------------------------------
A---------------------------------
D-----5-5-5-7-5-7-5---------------
p.m.  . . . . . . .


E-------------------------------------------------
B-------------------------------------------------
G-----111111-----11--11---11111111111111111112-11- 
D-----x-x-x------x---x----x-x-x-x-x-x-x-x-x-x--x--
A-----9-9-9------9---9----9-9-9-9-9-9-9-9-9-10-9--
D-------------------------------------------------

E------------------------------------------
B------------------------------------------
G-----111111-----11--11---111111--------11-
D-----x-x-x------x---x----x-x-x---9--7--x--
A-----9-9-9------9---9----9-9-9---9--7--9--
D---------------------------------9--7----- 

E-------------------------------------------------
B-------------------------------------------------
G-----111111-----11--11---11111111111111111112-11- 
D-----x-x-x------x---x----x-x-x-x-x-x-x-x-x-x--x--
A-----9-9-9------9---9----9-9-9-9-9-9-9-9-9-10-9--
D-------------------------------------------------

E-------------------------------------------
B-------------------------------------------
G-----111111-----11--11---111111111114-14-14-  
D-----x-x-x------x---x----x-x-x-x-x-x--x--x--
A-----9-9-9------9---9----9-9-9-9-9-12-12-12-
D-------------------------------------------



Verse: (0:20-0:53)

E-----------------------------------
B-----------------------------------
G------------------------7----------   (x2)
D------------------------x--(x16)---
A------------------------5----------
D-----5-5-5-7-5-7-5-(x2)------------
       (unmuted)


E----------------------------------------------------------------------------------
B----------------------------------------------------------------------------------
G---9-9-9-9-9-9-9-9------9-9-9-9-9-9-9-9------7-7-7-7-7-7-7-7------7-7-7-7-7-7-7-7- (x2)   
D---x-x-x-x-x-x-x-x------x-x-x-x-x-x-x-x------x-x-x-x-x-x-x-x------x-x-x-x-x-x-x-x-
A---7-7-7-7-7-7-7-7------7-7-7-7-7-7-7-7------5-5-5-5-5-5-5-5------5-5-5-5-5-5-5-5-
D----------------------------------------------------------------------------------


E-----------------------------------
B-----------7-------7-------7/8/7---
G---------7---7---7---7---7-------7- (x2)
D-------5-------5-------5-----------
A-----5-----------------------------
D-----------------------------------


Chorus: (0:53-1:20)


E--------------------------------------------------------------------------------
B--------------------------------------------------------------------------------
G-----1111111111111111------9-9-9-9-9-9-9-9------7-7-7-7-7-7-7-7-7-7-7-7-7-7-7-7-  (x4)
D-----x-x-x-x-x-x-x-x-------x-x-x-x-x-x-x-x------x-x-x-x-x-x-x-x-x-x-x-x-x-x-x-x-
A-----9-9-9-9-9-9-9-9-------7-7-7-7-7-7-7-7------5-5-5-5-5-5-5-5-5-5-5-5-5-5-5-5-
D--------------------------------------------------------------------------------

Verse 2: (1:21-1:53)

E---------------------------------
B---------------------------------
G--------------------------------- (x6)  
D---------------------------------
A---------------------------------
D-----5-5-5-7-5-7-5---------------
PM    . . . . . . . 


E-----------------------------------
B-----------------------------------
G------------7----------------------   (x8)
D--------5-5------------------------
A------5----------------------------
D-----------------------------------


E-----------5------------------------
B--------------------8---------------
G---------7--------7-----------------   
D-------5--------5-------------------
A-----5--------5----------------------
D-----------------------------------




Chorus: (1:53-2:20)

E--------------------------------------------------------------------------------
B--------------------------------------------------------------------------------
G-----1111111111111111------9-9-9-9-9-9-9-9------7-7-7-7-7-7-7-7-7-7-7-7-7-7-7-7- (x4)
D-----x-x-x-x-x-x-x-x-------x-x-x-x-x-x-x-x------x-x-x-x-x-x-x-x-x-x-x-x-x-x-x-x-
A-----9-9-9-9-9-9-9-9-------7-7-7-7-7-7-7-7------5-5-5-5-5-5-5-5-5-5-5-5-5-5-5-5-
D--------------------------------------------------------------------------------


Bridge i guess: (2:20-2:23)


E----------------------------------------
B----------------------------------------
G------111111111111-----9-9-9------7-7-7-   
D------x-x-x-x-x-x------x-x-x------x-x-x-
A------9-9-9-9-9-9------7-7-7------5-5-5-
D----------------------------------------




Then back to the intro part: (2:23-2:40)

E-------------------------------------------------
B-------------------------------------------------
G-----111111-----11--11---11111111111111111112-11-       only difference is it does the first part twice
D-----x-x-x------x---x----x-x-x-x-x-x-x-x-x-x--x--
A-----9-9-9------9---9----9-9-9-9-9-9-9-9-9-10-9--
D-------------------------------------------------

E-------------------------------------------------
B-------------------------------------------------
G-----111111-----11--11---11111111111111111112-11- 
D-----x-x-x------x---x----x-x-x-x-x-x-x-x-x-x--x--
A-----9-9-9------9---9----9-9-9-9-9-9-9-9-9-10-9--
D-------------------------------------------------

E------------------------------------------
B------------------------------------------
G-----111111-----11--11---111111--------11-
D-----x-x-x------x---x----x-x-x---9--7--x--
A-----9-9-9------9---9----9-9-9---9--7--9--
D---------------------------------9--7----- 

E-------------------------------------------------
B-------------------------------------------------
G-----111111-----11--11---11111111111111111112-11- 
D-----x-x-x------x---x----x-x-x-x-x-x-x-x-x-x--x--
A-----9-9-9------9---9----9-9-9-9-9-9-9-9-9-10-9--
D-------------------------------------------------

E-------------------------------------------
B-------------------------------------------
G-----111111-----11--11---111111111114-14-14-  
D-----x-x-x------x---x----x-x-x-x-x-x--x--x--
A-----9-9-9------9---9----9-9-9-9-9-12-12-12-
D-------------------------------------------



Back to chorus: (2:40-3:07)


E--------------------------------------------------------------------------------
B--------------------------------------------------------------------------------
G-----1111111111111111------9-9-9-9-9-9-9-9------7-7-7-7-7-7-7-7-7-7-7-7-7-7-7-7- (x4)
D-----x-x-x-x-x-x-x-x-------x-x-x-x-x-x-x-x------x-x-x-x-x-x-x-x-x-x-x-x-x-x-x-x-
A-----9-9-9-9-9-9-9-9-------7-7-7-7-7-7-7-7------5-5-5-5-5-5-5-5-5-5-5-5-5-5-5-5-
D--------------------------------------------------------------------------------


Intro thing: (3:07-3:20)

E-------------------------------------------------
B-------------------------------------------------
G-----111111-----11--11---11111111111111111112-11- 
D-----x-x-x------x---x----x-x-x-x-x-x-x-x-x-x--x--
A-----9-9-9------9---9----9-9-9-9-9-9-9-9-9-10-9--
D-------------------------------------------------

E------------------------------------------
B------------------------------------------
G-----111111-----11--11---111111--------11-
D-----x-x-x------x---x----x-x-x---9--7--x--
A-----9-9-9------9---9----9-9-9---9--7--9--
D---------------------------------9--7----- 

E-------------------------------------------------
B-------------------------------------------------
G-----111111-----11--11---11111111111111111112-11- 
D-----x-x-x------x---x----x-x-x-x-x-x-x-x-x-x--x--
A-----9-9-9------9---9----9-9-9-9-9-9-9-9-9-10-9--
D-------------------------------------------------

E--------------------------------------------
B--------------------------------------------
G-----111111-----11--11---111111111114-14-14-  
D-----x-x-x------x---x----x-x-x-x-x-x--x--x--
A-----9-9-9------9---9----9-9-9-9-9-12-12-12-
D--------------------------------------------



	And thats all she wrote. Its a really long tab, but it repeats itself alot. Not hard to play lots of fun. once again
	please let me know if you find any errors. SUbseven rocks!


Comments about this tab

snipr - 2005-04-08

This tab looks good, but theres one thing I'm not sure about with Subseven's new cd. Game of Love is in Drop C, and I'm not sure if the rest of the album is in C also. Neither Free To Conquer or Up To You are sufficient to show what tuning they're in, they can be played in C and D. If someone can find out what tuning most of FTC is in, that'd be great.


little_seve - 2005-04-08

I actually believe they are in drop Db(everything a half step lower than drop D). Because in the free to conquer version of mayday i noticed everything is half a step lower than in the ep version. So that is my assumption, and considering when you paly most of the FTC songs there is alot of flats and sharps. So i think they play in drop Db.


vote4pedro - 2005-04-08

good job!!! thx 4 tabbing subseven!!! but i wasn't to sure about the intro (doesn't sound right to me) also for the chorus i think u put 1 of the guitars but the other is probably playing something like this:

Chorus
Guitar 2 g |---11--9---7---
d |---9---7---5--- d |---11--9---7---
a |---9---7---5---while the other guitar plays a |---9---7---5---
d |---9---7---5--- d |---------------

and for the begining u say play the intro unmuted and then play g |---7---
d |---7---
a |---5---
and u say play that D chord 16x but its sounds like only 8x

Tim~


What5647 - 2005-08-26

nice tab. now can some1 do blinking lights?


Robin238 - 2006-07-24

I will tab it later if i can figure out how to tab


shatteredshadow - 2006-09-17

i have no clue if this tab is all right, but i love playing it and it's close enough to have fun with!!! good job. i love this song.


Add a comment/correction

Complimentary Christian Ringtones
Dadamobile and CGR have teamed up to bring your favorite Christian artists right to your phone. Sign up today and get 10 complementary ringtones!
Tab Country
Did you know CGR has a sister site w/ country guitar tabs? Well we do! Its called Tab Country. It has a great archive with a lot of country tabs.
Rockin Tabs
Are you looking for a site that has rock guitar tabs? Then Rockintabs.com is the place for you. It is a budding site with many rock guitar tabs. Submit your tab today.
Tab Gallery
Tab Gallery has a compilation of christian, rock, and country tabs all in one place. Come visit us.