Guitar Tabs
song title    band name

Join Us Today!

Don't strum alone...
be a part of the largest online Christian music community. Browse thousands of guitar tabs and chat w/ musicians like yourself.


It's Free!

Audio Adrenaline - Hands and Feet

This tab has been rated a 3.75 out of 5 for accuracy. (4 votes)Sorry, but you must be logged in to rate this tab.
Click here to log-in, or you can click here to register.
(Registration is free)

All songs owned by corresponding publishing company. If you make copies of any song on this website, be sure to report your usage to CCLI.
  Song: Hands and Feet
  By: ?????
  Album:Aquire the Fire Praise CD
  Tab by:annointed
    


     Intro:
  
   --slightly p.m.these notes---------------------------------------
 e------------------2---2---2---2---0---0---0---0---2---2---2---2---
 B--3---3---3---3-----3---3---3---3---3---3---3---3---3---3---3---3-intro
 G----2---2---2---2-------------------------------------------------part 1
 D------------------------------------------------------------------
 A------------------------------------------------------------------
 E------------------------------------------------------------------


   let ring---------------------| sl. -riff 1----------------------|
 e----7-------------------------|----------------------------------|
 B----8------------------3-2----|----------------------------------|
 G------9--------------------2--|----------------------------------|intro
 D--------9---------------------|--------4h5-4-5-2---4h5-4-5-7-----|part 2
 A----------7----------0--------|------0-----------0---------------|
 E--0---------------------------|-12\------------------------------|



    Verse:

   this part     |
   play 3x's-----|
 e---------------|----2---------|----------------|-----------------|
 B---------------|----3---------|----3-----------|----3------------|
 G------------0--|----2-----0---|----2-----------|----2------------|
 D--4---------0--|----0-----0---|----2-------2---|----2------------|
 A--2--2-3-5-----|--------------|----0-------2---|----0------------|
 E---------------|----------3---|------------0---|-----------------|



    Chorus:

  (For the chorus, play intro part 1 two times before playing part two.)
 or you can play it with the chords below.
                  D                        Asus
I want to be your hands ,I want to be your feet
     Em                    G                   }play 2x's
I'll go where you send me, go where you send me
         Em            A
and I'll try yeah I'll try.(if you play this as the intro this is where it stops.)
             D      D     C      G
to touch the world, like you've touched my life
         Em      Asus           D    }or play the Em & Asus as in intro pt. 2
and I'll find my way to be your hands.
 
 Play riff 1 before going back to verse.
                  
This is pretty close to the recording. I tabbed this version because it
rocks  more than Audio Adrenaline's.
q's & coms to ejmorones@iol25.com. God Bless.

Comments about this tab

Daniel A - 2004-12-05

good stuff


ibanezplaya007 - 2005-01-27

great song


guitarhockeyman - 2005-02-03

Does anyone know the brige at the begining of the song?


Kutless Fan - 2005-02-18

Here's the intro:

E-2-2-2-2h3p2-2-2-2-2h3p2-2-2-2-2p3h2-2-2-2-2p3h2-0-----0--0-------0
B-3-3-3-3-----3-3-3-3-----3-3-3-3-----3-3-3-3-----0---0----2-----2-2
G-------------------------------------------------0-0------0---0---0
D------------------------------------------------------------0------

E---3-2--3------3-2--3---
B----------3-----------3-
G-2-----------2----------

God bless.


guitarplayer92 - 2005-04-02

can anyone tell me how to play asus please


mmmthasgood1 - 2006-04-04

e------
B----3-
G----2-
D----2-
A------
E------


Add a comment/correction

Complimentary Christian Ringtones
Dadamobile and CGR have teamed up to bring your favorite Christian artists right to your phone. Sign up today and get 10 complementary ringtones!
Tab Country
Did you know CGR has a sister site w/ country guitar tabs? Well we do! Its called Tab Country. It has a great archive with a lot of country tabs.
Rockin Tabs
Are you looking for a site that has rock guitar tabs? Then Rockintabs.com is the place for you. It is a budding site with many rock guitar tabs. Submit your tab today.
Tab Gallery
Tab Gallery has a compilation of christian, rock, and country tabs all in one place. Come visit us.