Guitar Tabs
song title    band name

Join Us Today!

Don't strum alone...
be a part of the largest online Christian music community. Browse thousands of guitar tabs and chat w/ musicians like yourself.


It's Free!

This tab has been rated a 5.00 out of 5 for accuracy. (1 vote)Sorry, but you must be logged in to rate this tab.
Click here to log-in, or you can click here to register.
(Registration is free)

All songs owned by corresponding publishing company. If you make copies of any song on this website, be sure to report your usage to CCLI.
Submitted by: PRSdragonzrcool

Song: One Thing
Band: Pillar
Album: Where Do We Go From Here

Drop C tuning  (CGCFAD)

Key
/ = slide up

All notes on the low C string are palm muted.

D|---------------------------------------------------------------------------------------
A|---------------------------------------------------------------------------------------
F|---------------------------------------------------------------------------------------
C|---------------------------------------------------------------------------------------
G|---------------------------------------------------------------------------------------
C|--02302320--02302320--02302320--02302320--02302320--02302320--02302320-02302320--

D|--------------------------------------------------------------
A|--------------------------------------------------------------
F|--------------------------------------------------------------
C|--------------------------------------------------------------
G|----------5----------5---5/666---------5------3-333--1-111--
C|--00--00---00-0--00--00-------00--00---00-0--------0--------

D|--------------------------------------------------------------
A|--------------------------------------------------------------
F|----------7----------7---7/888---------7------5-555--3-333--
C|----------x----------x---x/xxx---------x------x-xxx--x-xxx--
G|----------5----------5---5/666---------5------3-333--1-111--
C|--00--00---00-0--00--00-------00--00---00-0--------0--------

Comments about this tab

lilsk8rboi411 - 2005-04-19

encore track?? is this the jam part?


lilsk8rboi411 - 2005-04-26

hello??


guitarfreaker - 2005-06-02

This is the part between track 11 and track 12. It's easy enough to figure it out by yourself, no need to post it on here but it's good.


GuitarJsa - 2005-06-20

This is nice. This track rocks! What's up with Noah using c all the time?


What5647 - 2005-08-10

drop c is noah's favorite tuning.


peanutbutter4me - 2005-09-09

It is Noah's fav tuning he said so on their website


Hawaiian_Guy - 2005-09-19

I'm kind of new to the guitar, but that sounds exactly correct to me!


jesusfreak936 - 2006-04-24

i love you........nice tab


Dani_Boy - 2006-05-07

What surprises me is that we've got 3 tabs for the riff after One Thing and not a single one for the actual song. I'll might go ahead and tab it.


guitarboy4Jesus - 2006-05-09

please do


jesusfreak936 - 2006-06-22

yes, someone please tab the actual song...


Add a comment/correction

Complimentary Christian Ringtones
Dadamobile and CGR have teamed up to bring your favorite Christian artists right to your phone. Sign up today and get 10 complementary ringtones!
Tab Country
Did you know CGR has a sister site w/ country guitar tabs? Well we do! Its called Tab Country. It has a great archive with a lot of country tabs.
Rockin Tabs
Are you looking for a site that has rock guitar tabs? Then Rockintabs.com is the place for you. It is a budding site with many rock guitar tabs. Submit your tab today.
Tab Gallery
Tab Gallery has a compilation of christian, rock, and country tabs all in one place. Come visit us.