Guitar Tabs
song title    band name

Join Us Today!

Don't strum alone...
be a part of the largest online Christian music community. Browse thousands of guitar tabs and chat w/ musicians like yourself.


It's Free!

This tab has been rated a 2.50 out of 5 for accuracy. (2 votes)Sorry, but you must be logged in to rate this tab.
Click here to log-in, or you can click here to register.
(Registration is free)

All songs owned by corresponding publishing company. If you make copies of any song on this website, be sure to report your usage to CCLI.
Submitted by: bigfatape828

Songs 4 Tricia (Princes and Frogs) - Regeneration Version


Alright guys, I requested it, and its been about 5 months,
so I took about 1hr 15mins of my time and figured it out... How sad...

The basis behind it is F# Bb B C#

The intro is this I think but 2 or 3 octaves up and on a keyboard.

E|----------------------------------|
B|----------------------------------|
G|--------------3-------4-------6---|x4
D|----4-------3---3---4---4---6---6-|
A|--4---4---1-------2-------4-------|
E|2---------------------------------|

Then it goes to different progressions of F# Bb B and C powerchords

F#  Bb  B   C#

-   -   -   -
-   -   -   -
-   3   4   6
4   3   4   6
4   1   2   4
2   -   -   -

-Lead part-

Interlude 1(after intro):
E|-------------------------------|
B|-------------------------------|
G|-3--1/3--3--1/3--3--1/3--4--3--|x4
D|-------------------------------|
A|-------------------------------|
E|-------------------------------|

Verse:
E|-------------------------------|
B|-------------------------------|
G|---3-----3-----3-----3/4\3/4---|x4
D|-----4-----4-----4-------------|
A|-------------------------------|
E|-------------------------------|

Pre-Chorus:
E|-------------------------------|
B|-------------------------------|
G|-4--3/4--4--3/4--4--3/4--4--3/4|
D|-------------------------------|
A|-------------------------------|
E|-------------------------------|

Chorus:
E|-------------------------------|
B|-------------------------------|
G|--4-3----4-3----4-3-1---1-3/1--|
D|------4-----4-----------------4|
A|-------------------------------|
E|-------------------------------|

Interlude 2(after choruses):
E|-------------------------------|
B|-------------------------------|
G|3-----4---3----3---------------|
D|---4----4---4----4--3--4-------|
A|-------------------------4-----|
E|-------------------------------|

Comments about this tab

No comments/corrections found. Add your own

Complimentary Christian Ringtones
Dadamobile and CGR have teamed up to bring your favorite Christian artists right to your phone. Sign up today and get 10 complementary ringtones!
Tab Country
Did you know CGR has a sister site w/ country guitar tabs? Well we do! Its called Tab Country. It has a great archive with a lot of country tabs.
Rockin Tabs
Are you looking for a site that has rock guitar tabs? Then Rockintabs.com is the place for you. It is a budding site with many rock guitar tabs. Submit your tab today.
Tab Gallery
Tab Gallery has a compilation of christian, rock, and country tabs all in one place. Come visit us.