Guitar Tabs
song title    band name

Join Us Today!

Don't strum alone...
be a part of the largest online Christian music community. Browse thousands of guitar tabs and chat w/ musicians like yourself.


It's Free!

This tab has been rated a 4.63 out of 5 for accuracy. (8 votes)Sorry, but you must be logged in to rate this tab.
Click here to log-in, or you can click here to register.
(Registration is free)

All songs owned by corresponding publishing company. If you make copies of any song on this website, be sure to report your usage to CCLI.
Submitted by: arcteryx

We Fall Down
Written by Chris Tomlin
As performed by Kutless on "Strong Tower"

Capo II

Intro:
B   ---6-----9--7--6--6--------6--7
G   6-----6--------------6--8------
then
A2 E B

Verse
B F# E
A B

Chorus 
A2 E B

I'm still not 100% sure on the verse. The chorus sounds better if played 
un-capoed as B F# C# but I think it can be played capoed too. Help if you can.

Comments about this tab

Rgoal - 2005-04-12

Good tab man! I decided to take some time to figure out the guitar solo. I'm pretty sure I got it down right. Correct me if I'm wrong. God Bless

e|--------------------|--------------------------9---8-9-6---------------|
B|-6h7p6--------------|-6h7p6-------------6---9---------------9---7---6--|
G|-------8-6---6------|-------8-6-------6---6---6---6-------6---6---6---6|
D|-----------8---8-6-6|-----------8---8----------------------------------|
A|--------------------|-------------9------------------------------------|
E|--------------------|--------------------------------------------------|


Rgoal - 2005-04-12

Oh ya, and the verse goes:

E B E A B x2


patrickw8 - 2005-05-06

This is a great tab. The only thing that I have to add is that the intro seemed to be missing something so I tried to figure it out.

--6---9---7---6---6-------6---7- -7--6---9---7---6---6------6---7
6---6---------------6--8-------- ------6---------------6--8


7--6---9---7---6---6------6---7 -7--6---9---7---6---6------6---7(end on this 7)
-----6---------------6--8 ------6---------------6--8

I hope this sounds right to ya, it did to me. Later people!


patrickw8 - 2005-05-06

Hey again, I was also able to figure out the ending which is pretty much just part of the intro. It sounds like it goes like this:

---6---9---7---6--6------6--7 7--6---9---7---6
-6---6--------------6--8----- -----6----------

My previous tab and this takes place on the B and G strings. (TOP BEING THE B AND THE BOTTOM BEING THE G)

I hope I tabbed this right, I have trouble some times. Until later man, later!


rocker-4-jesus - 2005-05-07

actuly the veres's are
E A2 f#m c#m A2 B


12stones_777 - 2005-05-17

you did an awesome job but its missing something i think they play the song
down a 1/2 step
try this:

e-----------------------------------------------------------------
b---7--10-8-7-7\5-5-7--8-7--10-8-7-7\5-5-7--8-7---10-8-7-7\5-5-7--play the 8-7
g--7-7--------------------7---------------------7-----------------part 1 more x
d-----------------------------------------------------------------
a-----------------------------------------------------------------
d-----------------------------------------------------------------

that's what i got
well god bless


12stones_777 - 2005-05-17

you did an awesome job but its missing something i think they play the song
down a 1/2 step
try this:

e-----------------------------------------------------------------
b---7--10-8-7-7\5-5-7--8-7--10-8-7-7\5-5-7--8-7---10-8-7-7\5-5-7--
g--7-7--------------------7---------------------7-----------------
d-----------------------------------------------------------------
a-----------------------------------------------------------------
d-----------------------------------------------------------------
play the 8-7
part 1 more x

that's what i got
well god bless


Jesus_Freak226 - 2005-05-31

r these chords supposed to be power chords or what


bryantheroxstar - 2005-06-07

On the solo part, instead of a hammer on/pull off for the 6h7p6 at the beginning, use a half-step bend and release 6~7~6. If you listen to the song the transition between those notes is very fluid.


bassplaya527 - 2005-08-16

hey 12stones_777, just for future info and for the info of everyone else who didnt know this, when you move your hand toward the body of the guitar, it is called "up" not "down." you really threw me off on that last comment and tab.
this isnt a slam, just so you know. -bassplaya527


JohnM - 2005-08-27

Um, he was correct, the song is played tuned down a half step (actually Drop-Db, Db-Ab-Db-Gb-Bb-Eb). Most Kutless songs are either Drop-D or Drop-Db.


Falcon-fever777 - 2005-09-03

in my opinion, it sounds like there are 3 guitars. One acoustic(most likely with the capo II) and two electrics. Now one of the electrics does sound drop tuned. This one power chords though out the bridge and choruses. Now the other(the one picking) does not have to be drop tuned unless a string is played open. In other words it is not really important if it is drop tuned as long as no strings are to be played opened.


Hammervw - 2005-09-07

the verse is F#,C#,F#,B,C#. This is 100% right.
The chorus is B,F#,C#.


IZONZION - 2005-09-15

Just wondering... is there a reason no one writes the words with the songs?


Falcon-fever777 - 2005-09-20

yeah, it is this whole big copyright thingy.


Falcon-fever777 - 2005-10-07

my strong tower song book says it is played a half step down(a.k.a. Eb tuning)


guitar_4_christ - 2006-02-18

WE FALL DOWN

INTRO: [C] [G] [Am] [F] [Dm]
[C] [G] [Am] [F] [Dm] [C]
[F] [C] [Dm] [C]
[F] [C] [Dm] [C]
[Am] [Am/G] [F] [C] [Dm] [G] [C] [F] [C] [F]

[C] [G] [Am]
We fall down, we lay our crowns
[F] [Dm]
At the feet of Jesus
[C] [G] [Am]
The greatness of the mercy and love
[F] [Dm]
At the feet of Jesus

[C] [F] [C] [Dm]
And we cry holy, holy, holy
[C] [F] [C] [Dm]
We cry holy, holy, holy
[Am] [G] [F] [C] [Dm]
We cry holy, holy, holy
[G] [C] [F] [C] [F]
Is the lamb


INTRO



(KEY CHANGE)

[D] [A] [Bm]
We fall down, we lay our crowns
[G] [Em]
At the feet of Jesus
[D] [A] [Bm]
The greatness of the mercy and love
[G] [Em]
At the feet of Jesus

[D] [G] [D] [Em]
And we cry holy, holy, holy
[D] [G] [D] [Em]
And we cry holy, holy, holy
[Bm] [A] [G] [D] [Em]
And we cry holy, holy, holy
[A] [D] [G] [D] [G]
Is the lamb

[D] [G] [D] [Em]
And we cry holy, holy, holy
[D] [G] [D] [Em]
We cry holy, holy, holy
[Bm] [A] [G] [D] [Em]
We cry holy, holy, holy
[A] [D] [G] [D] [G] [D]
Is the lamb


Kutlessfan501 - 2006-04-03

Dude, (guitarist_4_christ) I don't think your chords go w/ the Kutless version of "We Fall Down".
Not bad though...


Rockinthechurch - 2006-09-05

Hey Guitar 4 Christ, Thanx For the Chords (Im Bad with Tab)! God Bless


Guitarboy3211 - 2006-12-25

hey how do u fingure the A2 chord?


Guitarboy3211 - 2006-12-26

or is there no such thing as that?


studiostud - 2007-09-01

Hey everyone. Nice job on the tabs. I do have one slight correction for the lead lines. When I play through your tabs, all the notes are there, but I can't get them to ring out like they do on the CD and I think it's because they are supposed to be up at the 9-11 fret. I'm no good at creating tabs but try voicing it up there because you start on a lower (pitched) string so you have a lot more options of where to go to leave a note ringing out. Just my $0.02.


Add a comment/correction

Complimentary Christian Ringtones
Dadamobile and CGR have teamed up to bring your favorite Christian artists right to your phone. Sign up today and get 10 complementary ringtones!
Tab Country
Did you know CGR has a sister site w/ country guitar tabs? Well we do! Its called Tab Country. It has a great archive with a lot of country tabs.
Rockin Tabs
Are you looking for a site that has rock guitar tabs? Then Rockintabs.com is the place for you. It is a budding site with many rock guitar tabs. Submit your tab today.
Tab Gallery
Tab Gallery has a compilation of christian, rock, and country tabs all in one place. Come visit us.