Guitar Tabs
song title    band name

Join Us Today!

Don't strum alone...
be a part of the largest online Christian music community. Browse thousands of guitar tabs and chat w/ musicians like yourself.


It's Free!

This tab has been rated a 5.00 out of 5 for accuracy. (1 vote)Sorry, but you must be logged in to rate this tab.
Click here to log-in, or you can click here to register.
(Registration is free)

All songs owned by corresponding publishing company. If you make copies of any song on this website, be sure to report your usage to CCLI.
Submitted by: disciple_777

Song--Time
By----Day Of Fire
Album-Day Of Fire
Song--Joshua Brown & Gregg Hionis
Tabbed By--Jordan E.

Tuning--Dropped D (I promise you can hit all the notes)

Intro & Verse 
---------------------------------------------------------------
---------------------------------------------------------------
-7-7-7~~7-7-7-7------------------------------------------------
-7-7-7~~7-7-7-7-8-8-8-8-8-8-8-8-8-5-5-5-5-5-5-5-5-5-5-5-5-5-5-5
-5-5-5~~5-5-5-5-8-8-8-8-8-8-8-8-8-5-5-5-5-5-5-5-5-5-5-5-5-5-5-5
----------------8-8-8-8-8-8-8-8-8-5-5-5-5-5-5-5-5-5-5-5-5-5-5-5
       PM------------------------------------------------------)    

Chorus
---------------------------------------------------------- 
----------------------------------------------------------
-3-3-3-3-3-3-3-3-5-5-5-5-5-5-5-5-7-7-7-7-7-7-7-7-7-7-7-7-7 
-3-3-3-3-3-3-3-3-5-5-5-5-5-5-5-5-7-7-7-7-7-7-7-7-7-7-7-7-7 
-1-1-1-1-1-1-1-1-3-3-3-3-3-3-3-3-5-5-5-5-5-5-5-5-5-5-5-5-5
----------------------------------------------------------
Riff 1                       Riff 2
---------------                ----------------------------------------------
---------------                ----------------------------------------------
--------------3                ---------------------------------------------7
--------------3                -Sometimes this is played--------------------7
----------0-1-1                -once, sometimes twice-----------------0-1-3-5
1h3h5-5-5------                -5-3-5p3-3h5-5~5p3-3h5p3~-------0-1-3-5------- 
This is kinda quick               
and the 1h3h5 is quiet. 
I think the bass plays it
more audibly than the 
guitar. It's not played 
every time, listen to the cd.

Bridge
---------------------------------- -Acoustic 2 starts playing this--6----
---------------------------------- -----5-6-5---5-6-5---5-6-5---5-6---5-6
---------------------------------- ----5------5-------3-------3----------
---2-3-2---2-3-2---2-3-3---2-3-2-- --------------------------------------
-3-------3-------1-------1-------- --------------------------------------
---------------------------------- --------------------------------------
One acoustic plays this really lightly.


---------------10~~10~~10~~10-10-10-12-12-12-13-13-13-15-15-15-17~~~~~
---------------This is played by the electric the last time around----
-3~--5~---------------------------------------------------------------
-3~--5~---5~----------------------------------------------------------
-1~--3~---5~----------------------------------------------------------
----------5~----------------------------------------------------------
This is played very quietly by the electric.

Ok, that's it...  You'll need to figure out the order yourself, all the riffs 
are here...  Some of the little stuff in this song is just kinda extra,
you don't need to play it, it just fills it out a little.  Anyway, I
think this tab is as about as close as it should be without ripping off the
band...  Hope it works for you.  Peace Out    

Comments about this tab

No comments/corrections found. Add your own

Complimentary Christian Ringtones
Dadamobile and CGR have teamed up to bring your favorite Christian artists right to your phone. Sign up today and get 10 complementary ringtones!
Tab Country
Did you know CGR has a sister site w/ country guitar tabs? Well we do! Its called Tab Country. It has a great archive with a lot of country tabs.
Rockin Tabs
Are you looking for a site that has rock guitar tabs? Then Rockintabs.com is the place for you. It is a budding site with many rock guitar tabs. Submit your tab today.
Tab Gallery
Tab Gallery has a compilation of christian, rock, and country tabs all in one place. Come visit us.