Guitar Tabs
song title    band name

Join Us Today!

Don't strum alone...
be a part of the largest online Christian music community. Browse thousands of guitar tabs and chat w/ musicians like yourself.


It's Free!

This tab has been rated a 5.00 out of 5 for accuracy. (1 vote)Sorry, but you must be logged in to rate this tab.
Click here to log-in, or you can click here to register.
(Registration is free)

All songs owned by corresponding publishing company. If you make copies of any song on this website, be sure to report your usage to CCLI.
Submitted by: dnob23

Song: Girl America
Artist: Mat Kearney
Album: Bullet
Inpop Records, 2004

Chord progression:

7577xx
5355xx
3554xx
5355xx

If there is a ( ) around a number, that just means the note is not played as 
loud or clear

Intro:

e--------------------------------------------------------
B--------------------------------------------------------
G-------------7--------7---5--------5-----5---4---------4
D--------(7)-----7------------5-----------5-------5------
A----(5)------------5------------3-------------------5---
E-7--------------------7---5-----------5------3----------

e-----------------------------------------
B-----------------------------------------
G----7---5-----5-----4---5--(5)--(5)--(5)-
D----7------5--------5---5----------------
A-----------------------------------------
E-7------5--------3------5----------------

Verse/Chorus:

e------------------------------------------
B------------------------------------------
G----7---5--------5-----4---5----------(5)-
D----7---------5--------5---5--(5)---------
A-----------3----------------------(3)-----
E-7------5-----------3---------------------

e-----------------------------------------
B-----------------------------------------
G----7---5-----5-----4---5--(5)--(5)--(5)-
D----7------5--------5---5----------------
A-----------------------------------------
E-7------5--------3-----------------------

Its basically the same thing throughout the entire song with maybe a few
differences here and there. 
There is a second guitar in some of the song that is mainly strumming the
chords along with the fingerpicking.

Comments about this tab

Harns1985 - 2006-04-12

Does anyone know the correct chords for Chicago (acoustic)?


Sponkenfor - 2007-01-28

Does anyone know the chords for "Where we gonna go from here"?


Add a comment/correction

Complimentary Christian Ringtones
Dadamobile and CGR have teamed up to bring your favorite Christian artists right to your phone. Sign up today and get 10 complementary ringtones!
Tab Country
Did you know CGR has a sister site w/ country guitar tabs? Well we do! Its called Tab Country. It has a great archive with a lot of country tabs.
Rockin Tabs
Are you looking for a site that has rock guitar tabs? Then Rockintabs.com is the place for you. It is a budding site with many rock guitar tabs. Submit your tab today.
Tab Gallery
Tab Gallery has a compilation of christian, rock, and country tabs all in one place. Come visit us.