Guitar Tabs
song title    band name

Join Us Today!

Don't strum alone...
be a part of the largest online Christian music community. Browse thousands of guitar tabs and chat w/ musicians like yourself.


It's Free!

This tab has been rated a 5.00 out of 5 for accuracy. (1 vote)Sorry, but you must be logged in to rate this tab.
Click here to log-in, or you can click here to register.
(Registration is free)

All songs owned by corresponding publishing company. If you make copies of any song on this website, be sure to report your usage to CCLI.
Submitted by: Samuel Ryu

Jesus Blood
Original: Martin Smith, Delirious?
CD: Access:D
Arrangement: Sam Yoo
Email: delta6actual@hotmail.com

Intro solo:

      EM            D2/F#          G2                
E ------------------------------------------------------ 
B ----------0--------------1-------0--------0--1--0----- 
G --------0---------2-----2-------------0-----------2--- 
D --2------------------0--------------0---0------------- 
A ------------------------------------------------------ 
E------0------------2--------------3-------------------- 

EM              D2/F#              G2                
E -----------0------------------------------------------------ 
B --------0------------3--------1--------0--------0~---------- 
G --0------------------------2----------------0--------------- 
D -----2------------------0-----------------0---0------------- 
A ------------------------------------------------------------ 
E --0------------------2-----------------3-------------3—-2--- 

Verse 1:
Em          D2/F#         G2


EM              D2/F#               G2                
E -------------------------------------------------------------- 
B ----------0------------------3------------------3------------- 
G --------0-----------------2----------------0-------0---------- 
D -----2-----------------0-----------------0---0---------------- 
A -------------------------------------------------------------- 
E --0-----------------2------------------3--------3------3—-2---

 

Em     D2             G2


EM              D2/F#               G2                
E ------------------------------------------------3------------ 
B ----------0------------------3----------------3-------------- 
G --------0-----------------2-----------------0---------------- 
D -----2-----------------0------------------0------------------ 
A ------------------------------------------------------------- 
E --0-----------------2------------------3-------------3-—2----

Em        D2/F#       G2


EM              D2/F#               G2                
E ------------------------------------------------3------------ 
B ----------0------------------3----------------3-------------- 
G --------0-----------------2-----------------0---------------- 
D -----2-----------------0------------------0------------------ 
A ------------------------------------------------------------- 
E --0-----------------2------------------3-------------3-—2----

Em            D2           G2


EM              D2/F#               G2                
E -------------------------------------------------------------- 
B ----------0------------------3----------------0--1----3------- 
G --------0-----------------2-----------------0----------------- 
D -----2-----------------0------------------0------------------- 
A -------------------------------------------------------------- 
E --0-----------------2------------------3------------3-—--3----




Pre-chorus:
     C2        G/B                 Am7


C2                    G/B                  Am7                
E --0--------2-----3-----------------2----3------------0--3-----0-------------
B -------3------------------3------3-------------1---1--------1----3----------
G -----0---0---------------------0-----------------2--------0-----------2---2-
D -----------------------------0--------------------------------------0---0---
A --3-----------3-----3-----2-----------2----2---0--------3------------------- 
E ---------------------------------------------------—-------------2--------2-



Just tab out the chorus archapelego style. for verse 2, just do same as verse 1

One God,

Sam

Comments about this tab

Samuel Ryu - 2005-03-29

This one has the lyrics:

Intro solo:

EM D2/F# G2
E ------------------------------------------------------
B ----------0--------------1-------0--------0--1--0-----
G --------0---------2-----2-------------0-----------2---
D --2------------------0--------------0---0-------------
A ------------------------------------------------------
E------0------------2--------------3--------------------

EM D2/F# G2
E -----------0------------------------------------------------
B --------0------------3--------1--------0--------0~----------
G --0------------------------2----------------0---------------
D -----2------------------0-----------------0---0-------------
A ------------------------------------------------------------
E --0------------------2-----------------3-------------3—-2---

Verse 1:
Em D2/F# G2
There’s a secret I must tell…


Em D2 G2
Of all the love I’ve found...


Em D2/F# G2
And it’s hidden in my heart…


Em D2 G2
The day you tore my world apart…


Pre-chorus:
C2 G/B Am7
Hallelujah... King forever… Friend and Savior…

Chorus:

Em D/F# G
Jesus· Blood never fails me (x3)

Em D/F# Em Am7(sus)
Jesus· Blood, Jesus· Blood.



Add a comment/correction

Complimentary Christian Ringtones
Dadamobile and CGR have teamed up to bring your favorite Christian artists right to your phone. Sign up today and get 10 complementary ringtones!
Tab Country
Did you know CGR has a sister site w/ country guitar tabs? Well we do! Its called Tab Country. It has a great archive with a lot of country tabs.
Rockin Tabs
Are you looking for a site that has rock guitar tabs? Then Rockintabs.com is the place for you. It is a budding site with many rock guitar tabs. Submit your tab today.
Tab Gallery
Tab Gallery has a compilation of christian, rock, and country tabs all in one place. Come visit us.