Guitar Tabs
song title    band name

Join Us Today!

Don't strum alone...
be a part of the largest online Christian music community. Browse thousands of guitar tabs and chat w/ musicians like yourself.


It's Free!

This tab has been rated a 5.00 out of 5 for accuracy. (1 vote)Sorry, but you must be logged in to rate this tab.
Click here to log-in, or you can click here to register.
(Registration is free)

All songs owned by corresponding publishing company. If you make copies of any song on this website, be sure to report your usage to CCLI.
Submitted by: Jonodude

  Song: Can You Play Drums?
Artist: Starflyer 59
 Album: Leave Here a Stranger
 Some Blue Collar Songs ASCAP

Standard tuning

Intro: (see chords below)
F / Dm / Am

Intro lead:
   F              Dm       Am
e------------------------------------
B-----------------------1--0---------
G-----------------------------2------
D--------------------------------2^--
A--0-----0--5--3--0------------------
E------------------------------------

Verses:
     F
                  Dm                  Am
     F
                  Dm                  Am

Chorus:
Bb                 Fmaj7  *

Bb                 Fmaj7  *(first chorus only)

Bb          Fmaj7       Am          Bb       **


*Chorus riff: (for Bass?)   **Cello riff: (because it's cool to play)
D--------------             D------------------------
A-----0--3--0--             A--5p3--1--0--1p0--------
E--1-----------             E------------------3--1--

Solo:
G--------------------------------------------------
D-----------------------3-3-2-2-2------------------
A--3---3-0-3--3/5-3---3-----------0--0---0--3/5-3--
E--------------------------------------------------

G-----------------------------------------------------
D-----------------------3-3-2-2-2-2--0----------------
A--3---3-0-3--3/5-3---3-----------------0---0--3/5-3--
E-----------------------------------------------------

Outro riff:
D---------------        -----------------
A--3---0-------- (wait) --3---0------5^--
E---------1-----        ---------1-------

Intro/Verse chords (acoustic):
F  : xx7565
Dm : xx7765
Am : xx7555

Comments about this tab

i_don't_know - 2006-09-28

hey great tab but it's a litte off. in the second part of the first verse hold F through the Dm then go to the Am.


Jonodude - 2007-05-14

I'm sorry, but I don't hear that. Also, the official chordbook that Sf59 released in December '05 confirms what I've got here. (I didn't copy from the book, though) I _have_ just now corrected some of the chords in the chorus--some of the A minors were actually F major sevenths: they can sound a lot the same.


Add a comment/correction

Complimentary Christian Ringtones
Dadamobile and CGR have teamed up to bring your favorite Christian artists right to your phone. Sign up today and get 10 complementary ringtones!
Tab Country
Did you know CGR has a sister site w/ country guitar tabs? Well we do! Its called Tab Country. It has a great archive with a lot of country tabs.
Rockin Tabs
Are you looking for a site that has rock guitar tabs? Then Rockintabs.com is the place for you. It is a budding site with many rock guitar tabs. Submit your tab today.
Tab Gallery
Tab Gallery has a compilation of christian, rock, and country tabs all in one place. Come visit us.