Guitar Tabs
song title    band name

Join Us Today!

Don't strum alone...
be a part of the largest online Christian music community. Browse thousands of guitar tabs and chat w/ musicians like yourself.


It's Free!

This tab has been rated a 4.07 out of 5 for accuracy. (14 votes)Sorry, but you must be logged in to rate this tab.
Click here to log-in, or you can click here to register.
(Registration is free)

All songs owned by corresponding publishing company. If you make copies of any song on this website, be sure to report your usage to CCLI.
Submitted by: guitarsticks22

Stellar Kart
Spending Time

Tuning: EADGBE

Intro
e[----------------------------------------------------------
b[----------------------------------------------------------
g[-4-x-x-x-x------------------------------------------------
d[-4-x-x-x-x-4-4-2-x-x-x-x-----6-x-x-x-x-----4-x-x-x-x------
a[-2-x-x-x-x-----2-x-x-x-x-2-2-6-x-x-x-x-6-6-4-x-x-x-x-4-6-4
e[---------------0-x-x-x-x-----4-x-x-x-x-----2-x-x-x-x------

e[--------------
b[-5-----7------
g[---8-6---5-8--
d[--------------
a[--------------
e[--------------

verse
e[-----------------------------------------------------------
b[----------------palm mute--7-4-5-4-5-4-5-4-3x---7-0-2-0-2-4
g[-4---------------------------------------------------------
d[-4-let-ring------------------------------------------------
a[-2---------------------------------------------------------
e[-----------------------------------------------------------

pre chourus

guitar 1
e[---------------------------
b[-2-4-0-2-4-5---2-4-0-2-4-8^
g[---------------------------
d[---------------------------
a[---------------------------
e[---------------------------

guitar 2
e[-----------------------------------------
b[-----------------------------------------
g[-6--8--4--6--8---------6--8--4--6--8-----
d[-6--8--4--6--8--2------6--8--4--6--8--2--
a[-4--6--2--4--6--2------4--6--2--4--6--2--
e[----------------0---------------------0--

Chorus- they strum each chord a few times, but im just putting them once
e[------------------------
b[------------------------
g[-4-----6----------9--11-
d[-4-----6-----6----9--11-
a[-2-----4-----6----7--9--
e[-------------4----------

then they do the verse and pre chourus again

bridge - the palm muted guitar and the other one are two different guitars
e[-------------------------------------------------
b[------------------0-4-5-4-5-4-5-4-0-4-5-4-5-4-5-4
g[-4-----------------------------------------------
d[-4-----------------------------------------------
a[-2-----palm mute--2-2-2-2-2-2-2-2-4-4-4-4-4-4-4-4
e[-------------------------------------------------

e[--------------------------------
b[-0-4-5-4-5-4-5-4-7-4-5-4-5-4-5-4
g[--------------------------------
d[--------------------------------
a[--------------------------------
e[-4-4-4-4-4-4-4-4-0-0-0-0-0-0-0-0

then it plays the chorus palm muted once and then twice without the palm mute
then it plays the intro twice does that little riff and then ends on a B

I think this is pretty acurate
correct or add anything if you find a mistake
jesus on
-Brandon-

Comments about this tab

Frosteeman13 - 2005-04-19

Great tab. This is an awesome song. There is one thing though, the little ditty after the intro riff should be like

e[----------------
b[---5----7-------
g[----8-6--9-8----
d[----------------
a[----------------
E[----------------

or something like that, also I'd check the last note on guitar 1's part in the prechorus. Stellar Kart rules. Rock On!!!


guitarsticks22 - 2005-04-20

yeah your right about the little riff, i think it might of been a typo. I think the last not on guitar one though in the prechorus is right, it's just that you have to bend the note real quick. Thanks


guitarfreak846 - 2005-04-24

i just spent two hours on that song correctin it and i submited a tab for it


Fenderguitar90 - 2005-05-13

Great tab! could somebody figure out student driver? thats a sweet song!


Down_In_Flames - 2005-06-06

guitarfreak, his tab is better dude. and can any1 tab Come Back Home


guitarsticks22 - 2005-06-10

Thanks, for the feedback guys. Flames dude, i'll tab come back home soon. just give me a little time. Rock on yall


3rd Bassman - 2005-08-02

You know what the kool thing is though, The guys sound like 40X better in arizona live! I Went to the Rage Music Festival to go see Kutless at a theme park in AZ and discovered stellar kart, i was like Whoa!


monkeygirlrosie - 2005-08-22

Hey awesome job but in this part of the chorus it should be...

guitar 1
e[---------------------------
b[-2-4-0-2-4-5---2-4-0-2-4-9^
g[---------------------------
d[---------------------------
a[---------------------------
e[---------------------------


sanktified rock - 2005-10-14

e---------------0---------------0------------------------------
b-0-2-4-0-2-4-4h5--0-2-4-0-2-4/10------------------------------
g--------------------------------------------------------------
d--------------------------------------------------------------
a--------------------------------------------------------------
e--------------------------------------------------------------


sanktified rock - 2005-10-14

e------------------------------------------------------------------
b------------------------------------------------------------------
g------------------------------------------------------------------
d-4--------4--4----------------------------------------------------
a-2xxxxxxxx-xx--2--------2--2-6--------6--6-4--------4-6-4---x2----
e---------------0xxxxxxxx-xx--4xxxxxxxx-xx--2xxxxxxxx--------------

e------------------------------------------------------------------
b---then---5-4-0-7-5-4---------------------------------------------
g------------------------------------------------------------------
d------------------------------------------------------------------
a------------------------------------------------------------------
e------------------------------------------------------------------


futbol4god - 2006-11-04

that part below the intro is off it should be like this

e------------------------------
b--5-4------7-5-4-------------
g------4--------------4--l--r--
d---------------------4--e--i--
a---------------------2--t--n--
e---------------------------g--


futbol4god - 2006-11-04

sanktified rock almost had it perfect but u add that g in the 4th fret and it is perfect


punk/rock/metal - 2006-11-29

this song is awesome, rock on you guys!
JESUS FREAK!


Add a comment/correction

Complimentary Christian Ringtones
Dadamobile and CGR have teamed up to bring your favorite Christian artists right to your phone. Sign up today and get 10 complementary ringtones!
Tab Country
Did you know CGR has a sister site w/ country guitar tabs? Well we do! Its called Tab Country. It has a great archive with a lot of country tabs.
Rockin Tabs
Are you looking for a site that has rock guitar tabs? Then Rockintabs.com is the place for you. It is a budding site with many rock guitar tabs. Submit your tab today.
Tab Gallery
Tab Gallery has a compilation of christian, rock, and country tabs all in one place. Come visit us.