Guitar Tabs
song title    band name

Join Us Today!

Don't strum alone...
be a part of the largest online Christian music community. Browse thousands of guitar tabs and chat w/ musicians like yourself.


It's Free!

This tab has been rated a 4.50 out of 5 for accuracy. (4 votes)Sorry, but you must be logged in to rate this tab.
Click here to log-in, or you can click here to register.
(Registration is free)

All songs owned by corresponding publishing company. If you make copies of any song on this website, be sure to report your usage to CCLI.
Submitted by: aznguitarist28

Solo Tab

I figured that this part of the song will cause people the most trouble so
here is the solo tab from the song The Feel Good Drag on Anberlin's 
new cd Never take Friendship Personal. 
I tabbed this by ear so it may not be perfect but 
here's what I got. The song is in Drop D tuning. but you 
dont have to de-tune your guitar to actually play this.


b bend
h hammer-on
P pull-off
/ slide
~ vibrato
(#) artificial harmonic. (the artificial harmonics in this song are 
only slightly pinched with vibrato)

|----------------------------------------------------------------------------|
|----------------------------------------------------------------------------|
|--10--8--6-5-6--5h6p5--5----------------------5--5-6-8--6h8p6-5-------------|
|----------------------8-8-6----------5-6p5-6-8-8---------------8-6-8-(8)b---|
|---------------------------6-8--8p6-8---------------------------------------|
|----------------------------------------------------------------------------|


|-------------------------------------------|
|-------------------------------------------|
|------------------------------------6-8888-|
|-6h8p6---6h8p6--------6--6-8-10-8-10-------|
|------(8)~----(8)~-6h8-8-------------------|
|-------------------------------------------|

There you go. God bless.
brian

Comments about this tab

aznguitarist28 - 2005-03-29

i dont know why but this line got left out

|-------8--------------------8------------8------------------------|
|-----------------9------9-------------9-------13-----13-----13----|
|--8/10--10-10-10--10-10--10--10-10-10--10-10--15b17--15b17--15b17-|
|------------------------------------------------------------------|
|------------------------------------------------------------------|
|------------------------------------------------------------------|

it just goes after the two lines above.


Add a comment/correction

Complimentary Christian Ringtones
Dadamobile and CGR have teamed up to bring your favorite Christian artists right to your phone. Sign up today and get 10 complementary ringtones!
Tab Country
Did you know CGR has a sister site w/ country guitar tabs? Well we do! Its called Tab Country. It has a great archive with a lot of country tabs.
Rockin Tabs
Are you looking for a site that has rock guitar tabs? Then Rockintabs.com is the place for you. It is a budding site with many rock guitar tabs. Submit your tab today.
Tab Gallery
Tab Gallery has a compilation of christian, rock, and country tabs all in one place. Come visit us.