Guitar Tabs
song title    band name

Join Us Today!

Don't strum alone...
be a part of the largest online Christian music community. Browse thousands of guitar tabs and chat w/ musicians like yourself.


It's Free!

This tab has been rated a 4.00 out of 5 for accuracy. (2 votes)Sorry, but you must be logged in to rate this tab.
Click here to log-in, or you can click here to register.
(Registration is free)

All songs owned by corresponding publishing company. If you make copies of any song on this website, be sure to report your usage to CCLI.
Submitted by: stratguitarist

tuned a step down and dropped (CGCFAD)
,,,,,,,,,,,,,,,,,,,,,,,,,,,
|      p       - pull-off  |
|      h       -  hammer   |
| x(above tab) - palm mute |
|  x(in tab)   - deadened  |
'''''''''''''''''''''''''''


Intro:
D|-------------------------------------|      |---------------------------------|
A|-------------------------------------|      |--------------------7------------|
F|-------------------------------------|      |---------/7--7--7-7-7------------|
C|-8p7p0-5h7p0-5p3p0-1h3p0-1h0-1-1-----|  x3  |-8--8p0--------------------------|
G|-8p7p0-5h7p0-5p3p0-1h3p0-1h0-1-1-----|      |-8--8p0--/5--5--5-5-5------------|
C|-8p7p0-5h7p0-5p3p0-1h3p0-1h0-1-1-----|      |-8--8p0--------------------------|

Verse:
D|------------------------------------------------------------------------------|
A|------------------------------------------------------------------------------|
F|-7/14-14-14-14-14-14-14-14-14-11-11-11-11-11-11-11-10-10-10-10-10-10-10-10-10-|
C|------------------------------------------------------------------------------|
G|-5/12-12-12-12-12-12-12-12-12--9--9--9--9--9--9--9--8--8--8--8--8--8--8--8--8-|
C|------------------------------------------------------------------------------|

   x x x
D|-----------|
A|-----------|
F|-------10--|
C|-0-0-0-----|
G|-0-0-0--8--|
C|-0-0-0-----|


Bridge thing:          *not sure if these chords are entirely correct*
D|-10--x-x-x-x--10--x-x-x-x--6--x-x-x-x--6--x-x-x-x--10--x-x-x-x--10--x-x-x-x--|
A|--7--x-x-x-x---7--x-x-x-x--3--x-x-x-x--3--x-x-x-x---7--x-x-x-x---7--x-x-x-x--|
F|--7--x-x-x-x---7--x-x-x-x--3--x-x-x-x--3--x-x-x-x---7--x-x-x-x---7--x-x-x-x--|
C|--7--x-x-x-x---7--x-x-x-x--3--x-x-x-x--3--x-x-x-x---7--x-x-x-x---7--x-x-x-x--|
G|-----------------------------------------------------------------------------|
C|-----------------------------------------------------------------------------|

D|---------------------|
A|-7-7-7-7-7/10-10-10--|
F|---------------------|
C|-5-5-5-5-5/ 8--8--8--|
G|---------------------|
C|---------------------|


Chorus:  x      x     x     x           x
D|----------------------------------------------------|
A|----------10-----------------------------10---------|
F|----------13-----------------------------13---------|
C|-0h1p0-0------0-8p7-0-5h7-0-5---0h1p0-0------8-7-8--|
G|-0h1p0-0------0-8p7-0-5h7-0-5---0h1p0-0------8-7-8--|
C|-0h1p0-0------0-8p7-0-5h7-0-5---0h1p0-0------8-7-8--|

         x      x     x     x              x
D|-----------------------------------------------|
A|----------10-----------------------------------|
F|----------13--------------------------/7-------|
C|-0h1p0-0------0-8p7-0-5h7-0-5---8-8p0----0-1---| repeat
G|-0h1p0-0------0-8p7-0-5h7-0-5---8-8p0-/5-0-1---|
C|-0h1p0-0------0-8p7-0-5h7-0-5---8-8p0----0-1---|


  all the words began to fade away.....fall                      ...fall
                                                                     
D|------------------------------------------10-10-10-10...--------------10-10-10...10/13-13-13...--|
A|-------------------------------------------------------------------------------------------------|
F|-----------8-8-8-8-8-8-8-8-----------------7--7--7--7...---------------7--7--7...-7/10-10-10...--|
C|-8--8-8/10-0-0-0-0-0-0-0-0-------------0-------------------0-0-0-0-0-----------------------------|
G|-8--8-8/10-0-0-0-0-0-0-0-0-------------0-------------------0-0-0-0-0-----------------------------|
C|-8--8-8/10-0-0-0-0-0-0-0-0-------------0-------------------0-0-0-0-0-----------------------------|

the last part is just palm muting open and playing/bending 13 on the F string and 10 on the A string

i might have missed a little thing here or there, but that is the vast majority of the song.
enjoy
-Will

Comments about this tab

stratguitarist - 2005-04-01

i forgot to mark 2 palm mutings at the beginning of the tab where there's 2 1st fret power chords at the end of a phrase, those should be palm muted.


stratguitarist - 2005-04-01

ok forget that previous comment, disregard it completely. you don't play on the 1st fret, you play those last 2 chords open and palm muted (in the very first phrase i tabbed, right before the "x3")


snipr - 2005-04-08

Looks pretty good, man. Hope to see some more Staple tabs up here soon.


GodrulesWill777 - 2005-04-12

Great Job! Could you tab the bridge. Please!)


Staplefan - 2005-05-03

Ok so someone finally tabs staple and im confused just reading it. lol. hey great job though at least someone can do it. im just startin to play, maybe i should try to play somethin easier. lol


Peeps - 2005-05-19

ok, this tab is really good, but as i was playing with it, i found a couple of things...in the verse, the second time through each time, after the 9 and 11 formation on the G and F strings, he goes to a bar chord on the eight freight then to the 3rd fret. you can hear it on the cd. and in case some of you were like me and confused as to what to play at the end, after the bends and stuff on the A and F strings you do a bar chord riff that goes from the eighth fret to seventh and back to eighth, then play the verse riffs again, and the last riff is the intro riff. dude, without this tab, i wouldn't have picked up those couple of little things. good job!


Peeps - 2005-05-19

sorry, i forgot one thing. on the bridge thing, change the frets of the A string from 7 and 10 to 8 and 11; 7 and 10 make the chord off key


airguitar - 2005-12-13

|--------------------------------------------------------------------|
|-7----7----6----6----7----7----8-8-8-8-8/11-11-11-11----------------|
|-7----7----7----7----7----7----7-7-7-7-7/10-10-10-10----------------|
|-7----7----7----7----7----7----5-5-5-5-5/8--8--8--8-----------------|
|-5----5----5----5----5----5-----------------------------------------|
|--------------------------------------------------------------------|
Thats definetly 100% correct. The first part is just a major chord
dropping the third to make it minor, and the part after that is really
only a power chord. Anyway, enjoy.


airguitar - 2005-12-13

by the way, the above is a correction for the bridge XP


98customguy - 2005-12-28

this isnt really about the tab but i was wondering where u found this song at? what cd is it on?


98customguy - 2005-12-28

oops wrong song hehe


Add a comment/correction

Complimentary Christian Ringtones
Dadamobile and CGR have teamed up to bring your favorite Christian artists right to your phone. Sign up today and get 10 complementary ringtones!
Tab Country
Did you know CGR has a sister site w/ country guitar tabs? Well we do! Its called Tab Country. It has a great archive with a lot of country tabs.
Rockin Tabs
Are you looking for a site that has rock guitar tabs? Then Rockintabs.com is the place for you. It is a budding site with many rock guitar tabs. Submit your tab today.
Tab Gallery
Tab Gallery has a compilation of christian, rock, and country tabs all in one place. Come visit us.