Guitar Tabs
song title    band name

Join Us Today!

Don't strum alone...
be a part of the largest online Christian music community. Browse thousands of guitar tabs and chat w/ musicians like yourself.


It's Free!

This tab has been rated a 5.00 out of 5 for accuracy. (4 votes)Sorry, but you must be logged in to rate this tab.
Click here to log-in, or you can click here to register.
(Registration is free)

All songs owned by corresponding publishing company. If you make copies of any song on this website, be sure to report your usage to CCLI.
Submitted by: matt j t

"Turn"
Paul Coleman Trio

Verse 1: 

A#m7 - Fm - D# - C#
A#m7 - Fm - F#maj7 - G#
A#m7 - Fm - D# - C#
A#m7 - Fm - D# - C#

Interlude Riff:

(Chords) - A#5 - F5 - D#5 - C#5  (2x)       

(Lead part) - 

A|-------------------------4--|-------------------6----4-|(2x)
E|----4h6--4h6--4h6--4h6------|---4h6--4h6--4h6--4h6-----|	


Verse 2:

A#m7 - Fm - D# - C#
A#m7 - Fm - F#maj7 - G#
A#m7 - Fm - D# - C#
A#m7 - Fm - D# - C#

Chorus:

F# - A#m - G# - C#
F# - A#m - G#
F# - A#m - G# - C#
F# - A#m - G#


(((((((Repeat Interlude Riff only 1x)))))))))))


Verse 3:

A#m7 - Fm - D# - C#
A#m7 - Fm - F#maj7 - G#
A#m7 - Fm - D# - C#
A#m7 - Fm - D# - C#


((((((((((Repeat Chorus)))))))))


Solo:

(chords) - G#5 - C5 - A#5 - D#5 
	   G#5 - C5 - A#5   	
	   G#5 - C5 - A#5 - D#5 
	   G#5 - C5 - A#5 


(Lead Part)-
  
e|--11------10------11---11------10---------11---11h13|
B|------11------11------------11-------11-------------|   

e|--11------10------11---11------10---------11---11h13|
B|------11------11------------11-------11-------------| 

e|-11-----10-----11--11-----10------11---11--131313-1315-|
B|----11-----11---------11------11---------------------------|   

e|18181818181816161613---13--15---|
B|-------------------------------------------|   

e|16151311-----111513------13--------13-|
B|-------------11------------11-------11------|   


Verse 4:	

A#m7 - Fm - D# - C#
A#m7 - Fm - D# - C#


(((((((Repeat the 2nd half of interlude riff))))))))) 

	
(((((((((Repeat Chorus 2x))))))))


Repeat Interlude riff until the end (about 10x) 

-------------------------------------------------------------

Here's the chord chart to this song:

-------------------------------------------------------------

A#m7 - 1 1 3 1 2 1      Fm - 1 3 3 1 1 1

D# - x 6 8 8 8 6        C# - x 4 6 6 6 4

F#maj7 - 2 4 2 3 2 2    G# - 4 6 6 5 4 4

A#5 - 6 8 8 x x x       F5 - 1 3 3 x x x

D#5 - x 6 8 8 x x       C#5 x 4 6 6 x x

F# - 2 4 4 3 2 2        A#m - 1 1 3 3 2 1

G#5 - 4 6 6 x x x       C5 - 3 5 5 x x x

-------------------------------------------

I saw the other versions on this site and
they used capo 1 (I don't like using capos)!!

Please give comments on this tab because
this is one of my favorite song to play. 
So, if you can correct me if I messed up somewhere,
that would be great!!!

Enjoy,
Matthew Torres (matt j t)

 

Comments about this tab

matt j t - 2005-03-28

Just to Let you guys know,

In the solo (Lead Part) the repeated 13's, 18's, 16's are

tremelo picking.


matt j t - 2005-04-20

The part where it goes:

|-------------------6----4-|(2x)
|---4h6--4h6--4h6--4h6-----|


I mess up in typing it up, it goes like this:

|-----------------------6--4-|(2x)
|---4h6--4h6--4h6--4h6-------|


Sorry about the typo guys!!


nate_big12 - 2005-07-21

This A#m7 you speak of is a Fm7. There is no A#, unless you count the F as the A#


matt j t - 2005-07-24

i though the Fm7 was - 1 3 1 2 1 1

....and the A#m7 was - 1 1 3 1 2 1

but whatever.


Add a comment/correction

Complimentary Christian Ringtones
Dadamobile and CGR have teamed up to bring your favorite Christian artists right to your phone. Sign up today and get 10 complementary ringtones!
Tab Country
Did you know CGR has a sister site w/ country guitar tabs? Well we do! Its called Tab Country. It has a great archive with a lot of country tabs.
Rockin Tabs
Are you looking for a site that has rock guitar tabs? Then Rockintabs.com is the place for you. It is a budding site with many rock guitar tabs. Submit your tab today.
Tab Gallery
Tab Gallery has a compilation of christian, rock, and country tabs all in one place. Come visit us.