Guitar Tabs
song title    band name

Join Us Today!

Don't strum alone...
be a part of the largest online Christian music community. Browse thousands of guitar tabs and chat w/ musicians like yourself.


It's Free!

This tab has been rated a 5.00 out of 5 for accuracy. (3 votes)Sorry, but you must be logged in to rate this tab.
Click here to log-in, or you can click here to register.
(Registration is free)

All songs owned by corresponding publishing company. If you make copies of any song on this website, be sure to report your usage to CCLI.
Submitted by: jschneider94

"Open the Eyes of My Heart"
Sonicflood
KEY: F#
CHORDS USED:

    F#     F#maj7     Bsus2       Db        Ebm     Bmaj7       B
e---2---------2---------2---------4---------6---------2---------2
B---2---------2---------2---------6---------7---------4---------4
G---3---------3---------4---------6---------8---------3---------4
D---4---------3---------4---------6---------8---------4---------4
A---4---------4---------2---------4---------6---------2---------2
E---2---------2---------X---------X---------X---------X---------X


VERSE (Open the ...)
F#  F#maj7(/F bass guitar)  Bsus2  F#

CHORUS (To see ...)
Db  Ebm  Bmaj7  Db

OUTRO (holy, holy, holy ...)
F#  Bsus2  F#  Bsus2  (keep alternating as long as you stay on this part)


ALTERNATE OUTRO ENDING (holy, holy, holy ... 3x + I want to ... 2x)
F#  F#maj7  Bmaj7  Bsus2  F#



Notes:  
1. Bsus2 is for color - you can substitute B (see CHORDS USED) if you prefer.
2. You can also sub a B wherever you see Bmaj7 to give it a more "rock" feel.
3. ALTERNATE OUTRO ENDING is an alternative chord progression to end the song.
   Use the OUTRO to end the song if you don't like the ALTERNATE OUTRO.

Comments about this tab

dandaman - 2006-09-02

|---------------------------------------------------------|
|---------------------------------------------------------|
|----6--6-6---6-6------6--6-6---8-6-----------------------|
|--8--------8-----8--8--------8------8-6-4-6-4--8-6-4-6-4-|
|---------------------------------------------------------|
|---------------------------------------------------------|


To see you...
|---------------------------------------------------------|
|---------------------------------------------------------|
|-------6---6-6-6-6-8--r-r-r--8-6-6-6-8-6-8---------------|
|--4--8--------------------------------------8--6---r-r---|
|---------------------------------------------------------|
|---------------------------------------------------------|

Pour out...
|---------------------------------------------------------|
|---------------------------------------------------------|
|-6-6---6-6-8-8--r-r-------6-r--8-6-6---------------------|
|-----8---------------8-8-------------8-6--r-r-r----------|
|---------------------------------------------------------|
|------------------|------------------|-------------------|


Holy, Holy, Holy…
|------------------|------------------|-------------------|
|------------------|------------------|-------------------|
|-8--6-6-----------|-8--6-6-----------|-8--6-6------------|
|--------8-8—6-r-r-|--------8-8-6-r-r-|--------8-8-6-r-r--|
|------------------|------------------|-------------------|
|------------------|------------------|-------------------|

I want to see you
|---------------|
|---------------|
|---------------|
|-8-6-4-6-4-----|
|---------------|


Add a comment/correction

Complimentary Christian Ringtones
Dadamobile and CGR have teamed up to bring your favorite Christian artists right to your phone. Sign up today and get 10 complementary ringtones!
Tab Country
Did you know CGR has a sister site w/ country guitar tabs? Well we do! Its called Tab Country. It has a great archive with a lot of country tabs.
Rockin Tabs
Are you looking for a site that has rock guitar tabs? Then Rockintabs.com is the place for you. It is a budding site with many rock guitar tabs. Submit your tab today.
Tab Gallery
Tab Gallery has a compilation of christian, rock, and country tabs all in one place. Come visit us.