Guitar Tabs
song title    band name

Join Us Today!

Don't strum alone...
be a part of the largest online Christian music community. Browse thousands of guitar tabs and chat w/ musicians like yourself.


It's Free!

This tab has been rated a 2.25 out of 5 for accuracy. (4 votes)Sorry, but you must be logged in to rate this tab.
Click here to log-in, or you can click here to register.
(Registration is free)

All songs owned by corresponding publishing company. If you make copies of any song on this website, be sure to report your usage to CCLI.
Submitted by: PlAy4hIm92

Everyone Like Me Tab by Thousand Foot Krutch, www.Ultimate-Guitar.Com  Everyone Like Me Tab @ 911Tabs.Com 


Im pretty sure this is rite,this is just the chorus-im still working on the intro...
**Standard Tuning
/- slide

These are power chords, so just play the strings that arent open.

e---------------------------------------------------------|
b---------------------------------------------------------|
g--7-7--7-7-8------------------7-7--7-7-8-----------------|
d--7-7--7-7-8-7--7-7--7-7-8/7--7-7--7-7-8-7--7-7--7-7-8/7-|
a--5-5--5-5-5-7--7-7--7-7-8/7--5-5--5-5-5-7--7-7--7-7-8/7-|
E-------------5--5-5--5-5-5-5-------------5--5-5--5-5-5-5-|


Just repeat that.....


 
 

Comments about this tab

SG_man_22 - 2005-04-14

nice tab but i think this is the intro

--------------------------------30-----30--
------85--------85------85--11------111----
--00------000-------00---------------------32

also this song is in drop-D i think


SSj Guitarist - 2005-04-23

The song is in Drop-D because the pre-chorus is:
e|-------------------------|
b|-------------------------|
g|----------10----------12-|
d|--------8----------10----|
a|------8---------10-------|
d|----8-------10-----------|

Peace,
SSj


U B the band - 2006-07-08

Ahhh! I'll just tab out my version of Everyone Like Me It WILL end most of the debating of what should or shouldn't be played-PMT


U B the band - 2006-07-19

Go to Ultimate-Guitar.com to see my version of this song....'cause CRG.com hasn't put it on yet-PMT


Add a comment/correction

Complimentary Christian Ringtones
Dadamobile and CGR have teamed up to bring your favorite Christian artists right to your phone. Sign up today and get 10 complementary ringtones!
Tab Country
Did you know CGR has a sister site w/ country guitar tabs? Well we do! Its called Tab Country. It has a great archive with a lot of country tabs.
Rockin Tabs
Are you looking for a site that has rock guitar tabs? Then Rockintabs.com is the place for you. It is a budding site with many rock guitar tabs. Submit your tab today.
Tab Gallery
Tab Gallery has a compilation of christian, rock, and country tabs all in one place. Come visit us.