Guitar Tabs
song title    band name

Join Us Today!

Don't strum alone...
be a part of the largest online Christian music community. Browse thousands of guitar tabs and chat w/ musicians like yourself.


It's Free!

This tab has been rated a 5.00 out of 5 for accuracy. (4 votes)Sorry, but you must be logged in to rate this tab.
Click here to log-in, or you can click here to register.
(Registration is free)

All songs owned by corresponding publishing company. If you make copies of any song on this website, be sure to report your usage to CCLI.
Submitted by: Adam K

Dead Poetic-Taste The Red Hands
 2004 Tooth & Nail Records
 2004 Solid State Records
Drop D Tuning D-A-D-G-B-E

b=Bend
P.M...=Palm Mute

Intro
G[-2-2-2-2-2-2-2-2-2-2-2-2-2-2-2-2-2-2-2-2-2-2-2-2--]
D[-0-0-3-3-3-3-3-3-0-0-3-3-3-3-3-3-0-0-3-3-3-3-3-3--]
A[--------------------------------------------------]x2
D[--------------------------------------------------]
Then
D[-3-3-3-3-]
A[-3-3-3-3-]
D[-3-3-3-3-]

Verse 1
G[----------------------------------------------------------]
D[-0-0-3-3-3-3-3-3-0-0-3-3-3-3-3-3-0-0-3-3-3-3-3-3--3-3-3-3-]
A[-0-0-3-3-3-3-3-3-0-0-3-3-3-3-3-3-0-0-3-3-3-3-3-3--3-3-3-3-]
D[-0-0-3-3-3-3-3-3-0-0-3-3-3-3-3-3-0-0-3-3-3-3-3-3--3-3-3-3-]

G[---------7-7-7-7-]
D[-2-2-2-2-7-7-7-7-]
A[-3-3-3-3-5-5-5-5-]
D[-2-2-2-2-5-5-5-5-]

G[----------------------------------------------------------]
D[-0-0-3-3-3-3-3-3-0-0-3-3-3-3-3-3-0-0-3-3-3-3-3-3--3-3-3-3-]
A[-0-0-3-3-3-3-3-3-0-0-3-3-3-3-3-3-0-0-3-3-3-3-3-3--3-3-3-3-]
D[-0-0-3-3-3-3-3-3-0-0-3-3-3-3-3-3-0-0-3-3-3-3-3-3--3-3-3-3-]

G[---------7-7-7-7-]
D[-2-2-2-2-7-7-7-7-]
A[-3-3-3-3-5-5-5-5-]
D[-2-2-2-2-5-5-5-5-]

Pre-Chorus 1
G[-------------------------7-7-10-10-]
D[-0-0-xxx-0-0-xxx-0-0-xxx-7-7-10-10-]
A[-0-0-xxx-0-0-xxx-0-0-xxx-5-5--8--8-]
D[-0-0-xxx-0-0-xxx-0-0-xxx-5-5--8--8-]

G[-------------------------7-7-7-7-10-10-10-10-]
D[-0-0-xxx-0-0-xxx-0-0-xxx-7-7-7-7-10-10-10-10-]
A[-0-0-xxx-0-0-xxx-0-0-xxx-5-5-5-5--8--8--8--8-]
D[-0-0-xxx-0-0-xxx-0-0-xxx-5-5-5-5--8--8--8--8-]

Chorus
G[-----10-10--7--7-10-10-]
D[-0-0-10-10--7--7-10-10-]
A[-0-0--8--8--5--5--8--8-]x4
D[-0-0--8--8--5--5--8--8-]

Post-Chorus
G[-2-2-2-2-2-2-2-2-2-2-2-2-2-2-2-2-2-2-2-2-2-2-2-2--]
D[-0-0-3-3-3-3-3-3-0-0-3-3-3-3-3-3-0-0-3-3-3-3-3-3--]
A[--------------------------------------------------]
D[--------------------------------------------------]
Then
D[-3-3-3-3-]
A[-3-3-3-3-]
D[-3-3-3-3-]

Verse 2
(Same as Verse 1)

Pre-Chorus 2
G[---11-11b---11-11b---11-11b-10-10-7-7-]
D[-0--x--x--0--x--x--0--x--x--10-10-7-7-]
A[-0--9--9b-0--9--9b-0--9--9b--8--8-5-5-]
D[-0--------0--------0---------8--8-5-5-]

G[---11-11b---11-11b---11-11b-10-10-7-7-10-10-10-10-]
D[-0--x--x--0--x--x--0--x--x--10-10-7-7-10-10-10-10-]
A[-0--9--9b-0--9--9b-0--9--9b--8--8-5-5--8--8--8--8-]
D[-0--------0--------0---------8--8-5-5--8--8--8--8-]

Chorus

Bridge
G[---------10----------10-]
D[-0/0/0/0-10--0/0-0/0-10-]
A[-0/0/0/0--8--0/0-0/0--8-]x4
D[-0/0/0/0--8--0/0-0/0--8-]
P.M........   .........
(On the third time through the fourth
 the other guitar starts playing this)
B[-6/5-8/5-6/5-]x4

Chorus

Ending
D[-xxxxxxxxxxxxxxxxxxxxxxxxx-]
A[-xxxxxxxxxxxxxxxxxxxxxxxxx-]
D[-xxxxxxxxxxxxxxxxxxxxxxxxx-]
Then
D[-0-0-xxx-0-0-xxx-0-0-xxx-0-]
A[-0-0-xxx-0-0-xxx-0-0-xxx-0-]
D[-0-0-xxx-0-0-xxx-0-0-xxx-0-]

Tabbed by Adam K




Comments about this tab

pntbllfreak8807 - 2005-04-22

hey your tab was totally awesome but i think there is only one correction i got for you.its on the last bridge.
---------------
---------------
--------10b-10b
-0-0-0---------
-0-0-0--8b--8b-
-0-0-0---------
something like that. but that's how i play it. hope that helps. other than that your version is flawless. later


pntbllfreak8807 - 2005-04-22

ok forget that, its the second pre-chorus. sorry. my bad. later.


sXcountry - 2005-07-05

dude!! sweet tab! Ive been trying to do it, but i couldn't get the intro right, i had pretty much everything else! So its great according to me


lb4him - 2005-10-08

sweet tab Adam K, youve done alot on this site


Add a comment/correction

Complimentary Christian Ringtones
Dadamobile and CGR have teamed up to bring your favorite Christian artists right to your phone. Sign up today and get 10 complementary ringtones!
Tab Country
Did you know CGR has a sister site w/ country guitar tabs? Well we do! Its called Tab Country. It has a great archive with a lot of country tabs.
Rockin Tabs
Are you looking for a site that has rock guitar tabs? Then Rockintabs.com is the place for you. It is a budding site with many rock guitar tabs. Submit your tab today.
Tab Gallery
Tab Gallery has a compilation of christian, rock, and country tabs all in one place. Come visit us.