Guitar Tabs
song title    band name

Join Us Today!

Don't strum alone...
be a part of the largest online Christian music community. Browse thousands of guitar tabs and chat w/ musicians like yourself.


It's Free!

This tab has not yet been rated for accuracy.Sorry, but you must be logged in to rate this tab.
Click here to log-in, or you can click here to register.
(Registration is free)

All songs owned by corresponding publishing company. If you make copies of any song on this website, be sure to report your usage to CCLI.
Submitted by: mmggppmgp

Song:Let Love come down
Artist: Better Days Ahead
Alubum: Better Days Ahead
2004 Creative Trust Workshop

Reason: I dont think the other tab i submitted for BDA passed yet
but it says to say why this group should be added, and I think the should
Because i became an instant fan the first time i heard their music and
this band rock so much i ask so many ppl to help me figure out
their songs.

AUTHOR's NOTE: Hi, I made the timing somhow relevant to what is being played
but i dont want to spend all the time making it excact but if you listen to the
CD i think u'll figure things out.

INTRO:
Guitar 1:
e----------------------------------------
B----------------------------------------
G----5-------5-------5---5-5-5-5-5-5-5-5-
D-5--5--5-5--5--5-2--5-5-5-5-5-5-5-5-5-5-
A-5--3--5-5--3--5-2--3-5-3-3-3-3-3-3-3-3-
E-3-----3-3-----3-0----3-----------------
Guitar 2:
2nd time through
Play Octaves...
e---------------------------------------------------------------
B---------------------------------------------------------------
G-12----12----12----12----12----12----12----12----10---10---10--
D---------------------------------------------------------------
A-10----10----10----10----10----10----10----10----8----8----8---
E---------------------------------------------------------------

e---------------------------------
B---------------------------------
G-10---10---10---10---10--12--12--
D---------------------------------
A-8----8----8----8----8---10--10--
E---------------------------------

e------------------------
B------------------------
G-17--17--17--17--17--17-
D------------------------  i hope u get wat i meant by the timing
A-15--15--15--15--15--15- NOTE: the octaves may not bo 100% right so feel free
E------------------------ to correct it.
Verse: 

(note the verse is Palm muted like through out though some chords
are made ring, i suggest you do this according to your feel)
e----------------<---------------------------------> 
B----------------<--------------------------------->
G----5-------5---<-5-5-5-5-4-4-4-4-2-2-2-2-2-2-2-2-> Repeat the thing
D-5--5--5-5--5-5-<-5-5-5-5-4-4-4-4-2-2-2-2-2-2-2-2-> in <-> 
A-5--3--5-5--3-5-<-3-3-3-3-2-2-2-2-0-0-0-0-0-0-0-0->
E-3-----3-3----3-<--------------------------------->

these are basically the chords for the verse even there are leads... its 
very minimal n too little to figure mess with Gmaj scale it helps 
G A B C D E F# G ^_^

Pre-Chorus
Guitar 1: Play a C during the harmonics and a D after harmonics and b4 chorus

Guitar 2: Harmonics *= natural harmonic... let em ring
e---------7*---12*-------
B-------7*--------12*----
G-----7*-------------12*-
D---7*-------------------
A-7*---------------------
E------------------------
Chorus 1:
G5= 355xxx
D= xx0232
C5= x355xx

progression in a square beat.. G5 D C5 2x (i think)
listen u'll see what im sayin

Verse 2: same as the verse 1

Repeat Prechorus

Chorus 2:
G5 D C5
G5 D C5 Em D5 

Bridge: (solo part)
Guitar 1= C
          Em  D5 C
          Em  D5 C ummm listen for the timing
Guitar 2 
B------15--------15-------15-------------------------
G-12-14--14-12-14----12-14---14-12-14-12-11-9~-7~-12~
                                                       
B------15--------15-------15----12-10-----------15---    
G-12-14--14-12-14----12-14---14------11-12--14-------

e-13~~~~~
B-16b~~~~
G--------

Then:
Dunno which guitar is it but oh well this is a cool part

e---------------------------
B---------------------------
G-9-9\7-7/9-7-7-7-7-7-7-7-7-
D-9-9\7-7/9-7-7-7-7-7-7-7-7-
A-7-7\5-5/7-5-5-5-5-5-5-5-5-
E---------------------------

From here go straight to the Pre Chorus

Then Chorus 1... first part of it is soft
Then Chorus 2...
Then Intro...

Then that is it!!!

well if u hav a lot of comments or suggestion pls. email me at 
michael_97124@hotmail.com or AIM me at RockinFlip4Life

GOD BLESS AND ALWAYS RAWK OUT 4 JESUS HOPE I HELPED YOU

Comments about this tab

David wood - 2005-04-16

Thank you!


mmggppmgp - 2005-04-21

neways all ppl who noe dis band pls make more tabs... tis band es ell coolo


mmggppmgp - 2005-04-25

neways... gimme an email at michael_97124@hotmail.com or contact me at RockinFlip4Life wen yall want me to tab "mystery of you" cuz i hav it down


gracebap30 - 2005-04-27

someone please get the chords for this song


deanodubb - 2005-11-19

Man, this tab and this band rock so much it isn't funny lol.

Heep rocking on 4 bda and 4 God, go BDA


mmggppmgp - 2006-07-05

I put together this song with the chords and lyrics together cuz my youth group decideed to do it for a concert... so email me if u want


mmggppmgp - 2006-07-05

i also noticed that the back up guitar in the intro is not ploayed with octaves but harmonics


Add a comment/correction

Complimentary Christian Ringtones
Dadamobile and CGR have teamed up to bring your favorite Christian artists right to your phone. Sign up today and get 10 complementary ringtones!
Tab Country
Did you know CGR has a sister site w/ country guitar tabs? Well we do! Its called Tab Country. It has a great archive with a lot of country tabs.
Rockin Tabs
Are you looking for a site that has rock guitar tabs? Then Rockintabs.com is the place for you. It is a budding site with many rock guitar tabs. Submit your tab today.
Tab Gallery
Tab Gallery has a compilation of christian, rock, and country tabs all in one place. Come visit us.