Guitar Tabs
song title    band name

Join Us Today!

Don't strum alone...
be a part of the largest online Christian music community. Browse thousands of guitar tabs and chat w/ musicians like yourself.


It's Free!

This tab has been rated a 4.50 out of 5 for accuracy. (2 votes)Sorry, but you must be logged in to rate this tab.
Click here to log-in, or you can click here to register.
(Registration is free)

All songs owned by corresponding publishing company. If you make copies of any song on this website, be sure to report your usage to CCLI.
Submitted by: agilefingers

I added in the second guitar, the bridge, fixed the verse, and 2nd chorus.

Anberlin
Change The World
Blueprints for the Blackmarket
2003 tooth and nail records

Drop D tuning

[Intro]
Gtr1
e|---------------|
B|---------------|
G|-7--5--10--XXX-|
D|-7--5--10--XXX-|
A|-5--3--8---XXX-|
D|---------------|

Gtr2
|---------------|
|---------------|
|-14--10--17--X-|
|-14--10--17--X-|
|-12--12--15--X-|
|---------------|

Both
|--------------------------------------------------|
|--------------------------------------------------|
|-7-7-----7-----9-9----10-10-----10-----10-10-X-10-|
|-7-7--0--7--0--9-9-0--10-10--0--10--0--10-10-X-10-|
|-5-5--0--5--0--7-7-0--8--8---0--8---0--8--8--X-8--|
|------0-----0------0---------0------0-------------|x2
2x Gtr2 does a quick slide up from 1st 0-0-0 then back to 9-9-7

[Verse]
Gtr2
|--------------------|---------|
|-6-5------8-6-5-h6--|---------|
|-----5-h7-----------|---------|
|--------------------|---10----|
|--------------------|---10----|
|--------------------|---8-----|
|--------------------|---------|
         3x                    
Gtr1
|--------------------|---------|
|--------------------|---------|
|--------------------|---------|
|--------P.M---------|---10----|
|--------------------|---10----|
|---55555555555555---|---8-----|
|--------------------|---------|
 how ever many times

[Chorus]
|----------------------------------------------|
|----------------------------------------------|
|-10---12---10---5-------10---5-------10---5---|
|-10---12---10---5---3---10---5---3---10---5---|
|-8----10---8----3---3---8----3---3---8----3---|
|--------------------3------------3------------|

[After Chorus]
|------------------------|
|------------------------|
|------------------------|
|---------------------5--|
|--3-5------3-5-------5--|
|------3333-----3333--5--|x2

[Verse]

[Chorus2]
|----------------------------|
|----------------------------|
|-10---7-9-10-12--10---------|
|-10---7-9-10-12--10---------|
|-8----5-7-8--10--8---ect...-|
|----------------------------|

[intro2]

[solo]
Gtr2
|--------|
|--65-5--|
|----7---|
|--------|
|--------|
|--------|I think this is rite

Gtr1
|----------------------------|
|----------------------------|
|--9-10------2-3------9-10---|
|--9-10------2-3------9-10---|
|--7-8-------0-1------7-8----|
|----------------------------|

[Chorus]

end on |---|
       |---|
       |---|
       |-0-|
       |-0-|
       |-0-|

~enjoyi!

Comments about this tab

sXcountry - 2005-07-05

sweet tab dude!!! love this song!!
giving it a five


HolyRockJfreak - 2006-01-01

Great Job! This is an awesome song. It's almost 100%, I have the book, and the tab is off slightly in a few places, that I'll add in soon. But thanks for tabbing this out, because I have the book and it's confusing and this really helps. So thanks and Rock on!


HolyRockJfreak - 2006-06-27

the actual ending is

|-3-|
|-0-|
|-0-|

it's not a big difference...but in case anyone wanted to know....because I have the book....


HolyRockJfreak - 2006-06-27

on the intro the 4 string is muted....


guitarcordfreak - 2006-09-16

Where can you get the book?


Add a comment/correction

Complimentary Christian Ringtones
Dadamobile and CGR have teamed up to bring your favorite Christian artists right to your phone. Sign up today and get 10 complementary ringtones!
Tab Country
Did you know CGR has a sister site w/ country guitar tabs? Well we do! Its called Tab Country. It has a great archive with a lot of country tabs.
Rockin Tabs
Are you looking for a site that has rock guitar tabs? Then Rockintabs.com is the place for you. It is a budding site with many rock guitar tabs. Submit your tab today.
Tab Gallery
Tab Gallery has a compilation of christian, rock, and country tabs all in one place. Come visit us.