Guitar Tabs
song title    band name

Join Us Today!

Don't strum alone...
be a part of the largest online Christian music community. Browse thousands of guitar tabs and chat w/ musicians like yourself.


It's Free!

This tab has been rated a 4.20 out of 5 for accuracy. (5 votes)Sorry, but you must be logged in to rate this tab.
Click here to log-in, or you can click here to register.
(Registration is free)

All songs owned by corresponding publishing company. If you make copies of any song on this website, be sure to report your usage to CCLI.
Submitted by: vote4pedro

Band: Subseven
Song: Breathe
CD: Free To Conquer

This tab is not close to perfect, its more of a base/foundation 4 everyone to work off of. I'm sure between evreyone we can figure it out. Anyways, if u guys have any comments, questions, or just think my version sucked 
so bad that u just what to rip on me plz, plz, plz let me know!!!

Standard Tuning (E A D G B e)

~ - RING OUT

\ - SLIDE DOWN

/ - SLIDE UP

INTRO:
GUITAR 1 (0:01 - 0:36)
D |---4-4-4-4-4-4-4-4-4-4-4-4-4-4-4-4-----------------------------------4-4-4-4-4-4-4-4-4-4-4-4-4-4-4-4--1-2-4~---2-2-2-2-1-1-1-1---
A |---2-2-2-2-2-2-2-2-2-2-2-2-2-2-2-2--6-6-6-6-6-6-6-6-6-6-6-6-6-6-6-6--2-2-2-2-2-2-2-2-2-2-2-2-2-2-2-2-----------------------------(2X)
E |------------------------------------4-4-4-4-4-4-4-4-4-4-4-4-4-4-4-4--------------------------------------------------------------

GUITAR 2 (0:19 - 0:30) 
G |---4~---3~---(5X)

NOTE:THE GUITAR 2 PART ABOVE IS NOT COMPLETLY RIGHT, BECAUSE IN THE SONG AT CERTIAN PARTS HE PLAYS MORE THEN 2 NOTES (SO IF U GUYS COULD HELP ME FIGURE THOSE OTHER NOTES OUT THAT WOULD BE GREAT :)

CHORUS:
GUITAR 1+2 (0:37 - 1:11) 
D |---9-9-9-9-9-9-9-9\8-8-8-8/9-9-9-9\6-6-6-6-6-6-6-6-6-6-6-6-6-6-6-6---
A |---9-9-9-9-9-9-9-9\8-8-8-8/9-9-9-9\6-6-6-6-6-6-6-6-6-6-6-6-6-6-6-6---(4X)
E |---7-7-7-7-7-7-7-7\6-6-6-6/7-7-7-7\4-4-4-4-4-4-4-4-4-4-4-4-4-4-4-4---

NOTE: PLAY A NICE SLOW PACE, AND ALMOST PALM MUTE IT BUT NOT ALL THE WAY. ALSO, AT THE END OF THE CHORUS THEY PLAY ONE OR TWO CHORDS THAT I DON'T KNOW (ONE OF THEM MIGHT BE A D#)

INTERLUDE:
GUITAR 2 (1:11 - 1:13)
D |---2-2-2-2-1-1-1-1---

GUITAR 1 (1:14 - 1:49)
D |---4-4-4-4-4-4-4-4-4-4-4-4-4-4-4-4-----------------------------------4-4-4-4-4-4-4-4-4-4-4-4-4-4-4-4--1-2-4~---2-2-2-2-1-1-1-1---
A |---2-2-2-2-2-2-2-2-2-2-2-2-2-2-2-2--6-6-6-6-6-6-6-6-6-6-6-6-6-6-6-6--2-2-2-2-2-2-2-2-2-2-2-2-2-2-2-2-----------------------------(2X)
E |------------------------------------4-4-4-4-4-4-4-4-4-4-4-4-4-4-4-4--------------------------------------------------------------

GUITAR 2 (1:14 - 1:44) 
G |---4~---3~---(10X)

CHORUS:
GUITAR 1+2 (1:50 - 2:22) 
D |---9-9-9-9-9-9-9-9\8-8-8-8/9-9-9-9\6-6-6-6-6-6-6-6-6-6-6-6-6-6-6-6---
A |---9-9-9-9-9-9-9-9\8-8-8-8/9-9-9-9\6-6-6-6-6-6-6-6-6-6-6-6-6-6-6-6---(4X)
E |---7-7-7-7-7-7-7-7\6-6-6-6/7-7-7-7\4-4-4-4-4-4-4-4-4-4-4-4-4-4-4-4---

BRIDGE:
GUITAR 1 (2:25 - 2:32)
G |----------------------4--------------------4---
D |---6-6-\4-4\2-2/4--4~-4-6-6-\4-4\2-2/4--4~-4---
A |----------------------2--------------------2---
E |-----------------------------------------------

GUITAR 1+2 (2:33 - 3:07)
G |---4----------------
D |---4-(AROUND 35X)---
A |---2----------------
E |--------------------

CHORUS:
GUITAR 1+2 DISTORTION (3:08 - 3:44) 
D |---9-9-9-9-9-9-9-9\8-8-8-8/9-9-9-9\6-6-6-6-6-6-6-6-6-6-6-6-6-6-6-6---
A |---9-9-9-9-9-9-9-9\8-8-8-8/9-9-9-9\6-6-6-6-6-6-6-6-6-6-6-6-6-6-6-6---(4X)
E |---7-7-7-7-7-7-7-7\6-6-6-6/7-7-7-7\4-4-4-4-4-4-4-4-4-4-4-4-4-4-4-4---

OUTRO:
GUITAR 1 (3:45 - 3:58)
G |---4~-4~-------4-~-------4~-------4~---
D |---4~-4~-------4-~-------4~-------4~---
A |---2~-2~--2/6--2-~--2/6--2~--2/6--2~---
E |---------------------------------------

NOTE: THE LAST CHORD PLAY VERY, VERY QUITE

So yeah there it is, let me know what u guys think!!! If u havn't already go buy the new S7 cd Free To Conquer!!!

Tim~


Comments about this tab

CZECHKNIGHT93 - 2005-07-24

I go to church with a couple of the members of Subseven and they said that this song is written in Drop-D tuning and sometimes played in Drop-C# tuning.


CZECHKNIGHT93 - 2005-07-24

Oh yeah, and when this song was played right in front of my eyes, the fret play of this tab is close. The Subseven guitarist that played it for me did some hammers in there and he was using three strings instead of just two in the beginning. If it weren't dark in the church sanctuary when I watched him play, I could have made a correction. I'll just have to ask again. Sorry. Definitely a 4-star tab. Good job!


SoCalSixString - 2006-01-04

I am totally new at playing so I may be way off, but the first part of the song sounds wrong to me.

This seems more like it to me:

D
A 6 4 66 4 6 4 66 4 66 4 66 4 66 4
E 77777777777777774444444444444444

Like I said, I am really new at playing, just offering some help as what sounds right to me.


Add a comment/correction

Complimentary Christian Ringtones
Dadamobile and CGR have teamed up to bring your favorite Christian artists right to your phone. Sign up today and get 10 complementary ringtones!
Tab Country
Did you know CGR has a sister site w/ country guitar tabs? Well we do! Its called Tab Country. It has a great archive with a lot of country tabs.
Rockin Tabs
Are you looking for a site that has rock guitar tabs? Then Rockintabs.com is the place for you. It is a budding site with many rock guitar tabs. Submit your tab today.
Tab Gallery
Tab Gallery has a compilation of christian, rock, and country tabs all in one place. Come visit us.