Guitar Tabs
song title    band name

Join Us Today!

Don't strum alone...
be a part of the largest online Christian music community. Browse thousands of guitar tabs and chat w/ musicians like yourself.


It's Free!

This tab has been rated a 1.33 out of 5 for accuracy. (6 votes)Sorry, but you must be logged in to rate this tab.
Click here to log-in, or you can click here to register.
(Registration is free)

All songs owned by corresponding publishing company. If you make copies of any song on this website, be sure to report your usage to CCLI.
Submitted by: Captain Canada

Pillar 
Frontline
Flicker Records

Tune down a half step(EbAbDbGbBEb)

Intro/Verses
---------------------------------------------------------
---------------------------------------------------------
------21-----21-------42-------42--------4--------4------
------22-----22-------22-------22--------46-------46-----
------------------00-------00--------44---4---44---4-----
--22------22---------------------------------------------

Chorus

 F6 F5  F6 F5 G#5  D#5
---------------------------------------------------------
---------------------------------------------------------
--------------222----------------------------------------
--4-444-4-444-222-222------------------------------------
--4-444-4-444-000-222------------------------------------
--0h222-0h222-----000------------------------------------

Bridge (x alot)(wrong)
--------------|-------
--------------|-------
--------------|-------
---44-22------|-------
---------44-22|-0h2--- The solo is right on the other tabs but to play it in 
--------------|-----0- this tuning play it a step and a half down(lower pitch)

Comments about this tab

swimmer009 - 2005-03-22

ya i have the book and this sis wrong sorry but ya good try though


Captain Canada - 2005-03-26

have you played this version or is your gee-tar out of tune because i know this
is right. (yeah i have played along with the song) and when i said play the same solo (slow) but a step and a half lower i meant just a half step (one fret)


GuitarBeemer - 2005-03-30

whoa whoa whoa,
hold on their canada, i'm not exactly sure where you got this, but frontline is played with three strings each stroke, in drop c. this is totally not correct. i'm sorry, but just stick with the other tab on here that's rated about a 4.78 or something. peace.


GuitarBeemer - 2005-03-30

actually, the one that's rated 4.63 is the best on this site.


guitar player13 - 2005-05-26

jeez beemer chill it sounds right it might not be right but i dont think it matters if it sounds right then its ok peace


Dani_Boy - 2006-04-19

WOW, WOW, WOW! Are we thinking about the same song here? You know you've tabbed Frontline by Pillar don't you?

Alright, I don't mean to be harsh on you, but I can't understand what you got this from. First of all, it is in Drop C! Listen to the chorus, it's way more advanced than that. It's got some C5 chords using loose strings, so you have to use Drop C or lower.

Okay, I just have to write out the intro and the verse for you. The dots means palm muting and all the chords that are not palm muted are very muted off (short).

Intro:
F|------------------------------|
C|-----8-8-7-7---------8-8-7-7--|
G|---555-5-5-5-----55555-5-5-5--|
C|---555-5-5-5-----55555-5-5-5--|
P.M. .. ....

F|------------------------------|
C|-----10108-8---------10107-7--|
G|---888-8-8-8-----00000-0-0-0--|
C|---888-8-8-8-----00000-0-0-0--|
P.M. .. ....

Then the verse starts and you play the intro once more, then comes this little riff:

F|----------|
C|--7h8p7---|
G|-------8--|
C|----------|

The verse continues:

F|-------------7-7-------------7-7-----|
C|-----8-8-7-7-5-5-88--8-8-7-7-5-5-88--|
G|---555-5-5-5-5-5-55555-5-5-5-5-5-55--|
C|---555-5-5-5-----55555-5-5-5-----55--|
P.M. .. ..

F|-------------1010--------------1010------|
C|-----10108-8-8-8-1010--10107-7-0-0-1010--|
G|---888-8-8-8-8-8-8 8-000-0-0-0-0-0-0 0---|
C|---888-8-8-8-----8 8-000-0-0-0-----0 0---|
P.M. .. ..

F|-------------7-7-------------7-7-----|
C|-----8-8-7-7-5-5-88--8-8-7-7-5-5-88--|
G|---555-5-5-5-5-5-55555-5-5-5-5-5-55--|
C|---555-5-5-5-----55555-5-5-5-----55--|
P.M. .. ..

F|-------------1010--------------10-10-----|
C|-----10108-8-8-8-1010--10107-7-------10--|
G|---888-8-8-8-8-8-8 8-000-0-0-------------|
C|---888-8-8-8-----8 8-000-0-0-------------|
P.M. .. ..


Okay, this became a long correction. The dots means palm muting, h means hammer on and p means pull off. Everythings muted off except the last notes that you let ring. Hope this helped you out some. This tab was really bad, but I don't mean to discourage you. Keep going on!


Dani_Boy - 2006-04-19

Shoot, my dots became all wrong! Listen to hear when to play the palm muted stuff. I forgot that this corrections window can't handle more than one space in a row.


chickentenders - 2006-09-02

yo guitarbeemer i only saw a 4.50 . did they delete that version of the song?:)paece


|)rink)v(tn|)ew - 2006-10-30

Hey all, at Creation NW, I was Watching very close to see what Noah does and this is what i saw and im pretty sure it sounds right, tell me what you think...

...well this is the ending of the intro...
c---xx10108-8--xxxx1010-----------------
g---xx8-8-8-8--xxxxx-x-1212-12h13p12p10-
c---xx8-8-8-8--xxxx0-0-0-0--------------


Add a comment/correction

Complimentary Christian Ringtones
Dadamobile and CGR have teamed up to bring your favorite Christian artists right to your phone. Sign up today and get 10 complementary ringtones!
Tab Country
Did you know CGR has a sister site w/ country guitar tabs? Well we do! Its called Tab Country. It has a great archive with a lot of country tabs.
Rockin Tabs
Are you looking for a site that has rock guitar tabs? Then Rockintabs.com is the place for you. It is a budding site with many rock guitar tabs. Submit your tab today.
Tab Gallery
Tab Gallery has a compilation of christian, rock, and country tabs all in one place. Come visit us.