Guitar Tabs
song title    band name

Join Us Today!

Don't strum alone...
be a part of the largest online Christian music community. Browse thousands of guitar tabs and chat w/ musicians like yourself.


It's Free!

This tab has been rated a 3.75 out of 5 for accuracy. (16 votes)Sorry, but you must be logged in to rate this tab.
Click here to log-in, or you can click here to register.
(Registration is free)

All songs owned by corresponding publishing company. If you make copies of any song on this website, be sure to report your usage to CCLI.
Submitted by: Paul86

Artist: Hillsong United
Album: Look to you
Track: Tell the world
Track Number: 02

This was tabbed by ear and all credit for the actual song goes to the brilliant 
hillsong united 

(obviously)

tabbed by Paul Martin (Hope church York). 
Please feel free to email me about this on paulm86@gmail.com

Hillsong united are an awesome band who have helped me tremendously 
o i hope this tab can help 
others in their personal/church worship.

Fidly guitar bits use the following guitar shape with variations of positions
xx0679
and
xx0675

The chords are as follows
F#m7 = 244222 or (x 9 11 11 10 X)
Dsus- xx0230
A- x02220
e- 022100 or (079900)


Verse
F#m- Dsus
F#m - Dsus- A

Chorus
A - E - F#M - Dsus

Bridge
A - E - F#m-  Dsus

Enjoy

Comments about this tab

Paul86 - 2005-03-30

guitar
b--7--------3-----------------
g--9^11----5^7---------------

The chords are as follows
F#m7 = 244222 or (x 9 11 11 10 X)
Dsus- xx0230
A- x02220
e- 022100 or (079900)


Capn Redbeard - 2005-04-02

Actually if you listen to the Cd, the bridge chords are A - Bm - F#m - D


matt_pom - 2005-04-04

Capn Redbeard is right about the bidge


g00ksta7 - 2005-04-13

E - - - - - - - - - - - - - -
A - - - - - - 4-5-5-5-4-4-4-0
D 4-4-4-2-2-2 - - - - - - - -
G - - - - - - - - - - - - - -

That's the intro for the bass.....

Corrections-!

The chorus and bridge is A-E-F#-D the whole time. When the drums are going by itself through the bridge, then the bass comes in, they use A-E-F#-D....also through the chorus the whole time!!


g00ksta7 - 2005-04-13

Actually, I guess both works?


BenJwasHere - 2005-06-15

i sorta agree wit capn redbeard on the bridge..cuz thats what i heard too


CrossMovement - 2005-06-22

Nice effort but just want to make some corrections:

Verse: F# Bm7 D
Chorus: A E F#m D A E (2x) F#m D (3x)
Bridge: A Bm9 F#m D A Bm9 D F#m D


cyril24 - 2005-07-09

Hey guys, i was just wondering can you some one please submit a bass tab as i would like to learn the song


BassDude112 - 2005-07-18

Actually the intro for the bass is

----------------------------------
----------------------------------
-----999--777--44--555--44--00----
----------------------------------


BassDude112 - 2005-07-18

My bad its actually

E-------------------------------
A----999--777--44--555--44--00--
D-------------------------------
G-------------------------------


alexander777 - 2005-07-26

the lead on the verse goes like this (i havent done the rhythm just listen to the cd for that)

----------------------------------------------------------------
----------------------------------------------------------------
-18-18-18-18---11--11--11--11----16-16--16--14-14-14--13-13-----(from intro)
----------------------------------------------------------------
-16-16-16-16---09--09--09--09----14-14--14--12-12-12--11-11-----
----------------------------------------------------------------


-----------------------------------------------------
-----------------------------------------------------
--11--11--11--11---11-11-11-11----18-18-18-18--------
-----------------------------------------------------
--09--09--09--09---09-09-09-09----16-16-16-16--------
-----------------------------------------------------


----------------------------------------------------
----------------------------------------------------
--11--11--11--11----16-16--16--14-14-14--13-13------
---------------------------------------------------- (repeat from 2nd
--09--09--09--09----14-14--14--12-12-12--11-11------ line)
----------------------------------------------------


mmggppmgp - 2005-07-29

for the verses i play this, i hope this helps
for ppl with only 1 guitar player in their
praise and worship team/band

here it is (try playing it with the cd)

e-9--9--9--9--9--9--x------
B-10-10-10-10-10-10-x------
G-11-10-11-10-11-10-x-7777-
D-11-11-11-11-11-11-x------
A-9--9--9--9--9--9--x-5555-
E-x--x--x--x--x--x--x------

then

e-9--9--9--9-----------
B-10-10-10-10----------
G-11-10-11-10-777666---
D-11-11-11-11-------77-
A-9--9--9--9--55555555-
E-x--x--x--x-----------

for the Prechorus:

the little riff the play again is this... listen to cd

B-------10-10-10-7-7- < i jus keep on playing the 5 AKA F# til
G-------------------- the riff is played again..
D-7-7-7--------------

b4 the chorus if you walk down the scale and resolve to an A it will sound really cool



mmggppmgp - 2005-07-29

oh yah and for the bridge the is a cool sounding guitar... playing D with a scratchy rythm.. dunno wut effect... but the pre chorus riff thing i submit is played and it sounds like it stands out more


mmggppmgp - 2005-07-29

correction to my correction... get it???

B------10-10-10-7-7- < i jus keep on playing the 5 AKA F# til
G------------------- the riff is played again..
D-7-7---------------

voala.. lol...


WalkingWill - 2005-07-31

Hey, nice tab im pretty sure it all works and thanks for that bass for the life of me i couldnt figure it out lol but hey, two things: 1.How does the guitar intro go? 2. Is there anyway one of yall can send me the lyrics with the chords? Ive attempted to add the chords to the lyrics lol and well im extremely new to this, it would be extremely helpful. I lead the youth band at my church and we are tryin to get to play this song, just we cant seem to put the chords in the right place. My email is anointed_and_ready@hotmail.com yall guys rock :) peace


dajusta - 2005-08-29

im very confused about which chords to follow and when.

can someone help clarify the intro, verse, prechorous, chorus and the bridge?

im noob, sorry.


Caleb_Isaacs - 2005-08-31

Alright dudes u got it all wrong it goes

Verse: F#m
Chorus: A E F#m
Bridge A E F#m

Theese are the right chords but you can throw in a Bm7 and then D at the end of the Pre Chorus

THis song absolutely rocks and big thanx to hillsong united

So Join ME In TELLlING THE WORLD THAT JESUS LIVES!!!!!!!!!!!!!!!!!!!!!!!!!!!!!!


Caleb_Isaacs - 2005-08-31

Sorry the end of chorus and bridge after F#m is D :)


dajusta - 2005-09-01

whats chords for the prechrous?


dajusta - 2005-09-01

prechorus: A E F#m Bm7 D

?


janjan_invzim - 2005-09-10

this doesn't use full chord in its intro and verses...
the bass tab is like this:
A-999-777-44-5544----
E-----------------5--

janjan


jandjian - 2005-09-17

guitar riff:

e-----------------------------------------
B-----------------------------------------
G-111111111111--666--11111111-44-22-1-----
D-----------------------------------------
A-9-9-9-9-9-9---444---9-9-9-9-22-00-------
E-----------------------------------------
This will be played during the verses

e-----------------------------
B-----------------------------
G-111111-777-44-5544----------
D--------------------7--------
A--9-9-9-555-22-5544----------
E--------------------5--------


madskipling - 2005-09-23

Hey...I am Mads from Denmark, ive just tab this wonderful song, and I think the one of the El-guitars play this riff, the other play the same as the bass, if anyone is interested in the rest of the song
then just send me a mail on madskipling@ofir.dk
God Bless
/Mads

Vers
e|-x--x--x--x--x-x-x-/x-x--x--x--x--x--x--x--/x-/x---------|R
B|-x--x--x--x--x-x-x-/x-x--x--x--x--x--x--x--/x-/x---------|E
G|-11-11-11-11-7-7-7-/6-11-11-11-11-16-16-16-/14/13--------|P
D|-x--x--x--x--x-x-x-/x-x--x--x--x--x--x--x--/x-/x---------|E
A|-9--9--9--9--5-5-5-/4-9--9--9--9--14-14-14-/12/11--------|A
E|-x--x--x--x--x-x-x-/x-x--x--x--x--x--x--x--/x-/x---------|T

please send me a mail, if you have any corrections.


pjohn - 2005-10-11

Madskipling you're so right about that part... whohoo.


Iam am Jeremy - 2005-11-03

hey everyone
i have seen the sheet music
Verse and Intro: F#m
Pre Chorus: F#m Bm D Those 2 chords are played at the end of it and fast
Chorus: A E F#m D
Bridge: A Bm F#m D

I hope this settles all the arguments


punkishnate - 2005-11-03

here's an idea.... how bout people actually know what they're doing before they post crappy tabs that are completely wrong, because they want to feel special and get a song up here. If your not sure then dont post it!


Ruined14 - 2005-11-30

There seems 2 b much confusion with this song!

i play this song in my youth n this is how i play it

e
B-----6b------------------
G-------77--66-----------
D---------------77-------
A-----------------------
E----------------------- X2 or 4 can't member

throughout the verse, i play f# palm muted and then when it gets to the end of a line for example "don't wanna stand here and shout your praise" (all palm muted) then hit F# a few times without the palm mute, im not 100% sure if that is how hillsong do it, but it sounds kewl! :)

the prechorus, is a little riff that goes like this

e-----------------------------
B------------10----------------
G-------------- 11 11 11 11 11 ( a few times)
D-----11 11-----------------------
A------------------------------------
E------------------------------- X4 i think

then the chorus is simple just

A - E - F# - D

if there are any quesions, email me at inahouse_14@hotmail.com

thx n god bless


Skorzen - 2005-12-26

Bass line is close on those, but it's a little simpler than some are making it. The part just walks down the triad from root-7th-5th. It should be F#F#F#EEEC#C#DDDC#C#C#AA all eighth notes. in tab this would be:

A--999777--555444----------
E--------99-------55-----

or:

A--99977744555444-----
E-----------------55--

or if you have 5 strings and don't want to move:

A--9997777----------
E----------99(10)(10)(10)999
B-------------------------(10)(10)


I personally think the first one gets the tone closest to the recording, and it is what I believe is played on the recording.


TFK_guy - 2006-03-31

ok all i've figured out in like 3 min. is the very beginning of the intro and it's like this

e------------------------------|
b--7-7-7-7-7-7-7-7-------------|
g--9b9b9b9b9b9b9b9b-777-666----|
d---------------------------99-|


TFK_guy - 2006-03-31

ok my bad those last two strokes on the d string (d---99) should be

e----|
b----|
g----|
d-99-|


pommyboyaussie - 2006-04-22

ok guys the bass line is all wrong
i played this at a performance and the easiest way 2 play the bass line is:

A----999-777-----------------
E------------99-101010-999-55

thats the easiest way 2 play the bass line for all you who dont know it


manilacoke3 - 2006-04-24

the simplest way to play the bassline is doing an on position scale so each finger can be assigned to a fret.look:

G
D--444
A-----777-44-555-444
E-------------------55

Godbless ya'll!

Iah Lacsina
Worship Team Leader
Neo X Youth Ministry
Harvesters Christian Fellowship
Ortigas Ave.,Mandaluyong,Metro Manila


manilacoke3 - 2006-04-24

Note: About the on-position scale...

index finger on the 4th fret;
middle on the 5th;
pinkie on the 7th.

it may not be the best way to play it,
but its a alot simpler.

Godbless!


JESUSFReaK301 - 2006-04-25

Look, for the bass, intro, there have so many postings that are exactly the same, what wid that???? Choose, which you find is easiest, and play it, don't tell others that theirs is wrong if it's exactly the same.


LesPaul1988 - 2006-07-19

Man so many different things to play on here.

The intro is Using Octaves along with the verse.

Intro:

F# E D

Verse:

F# C# F# B A G#

Listen and play along with the CD. Remember what I have written you need to play in Octaves on the A & G strings. Listen for the changes and rythym patterns.

Keep Rockin for the Lord


Add a comment/correction

Complimentary Christian Ringtones
Dadamobile and CGR have teamed up to bring your favorite Christian artists right to your phone. Sign up today and get 10 complementary ringtones!
Tab Country
Did you know CGR has a sister site w/ country guitar tabs? Well we do! Its called Tab Country. It has a great archive with a lot of country tabs.
Rockin Tabs
Are you looking for a site that has rock guitar tabs? Then Rockintabs.com is the place for you. It is a budding site with many rock guitar tabs. Submit your tab today.
Tab Gallery
Tab Gallery has a compilation of christian, rock, and country tabs all in one place. Come visit us.