Guitar Tabs
song title    band name

Join Us Today!

Don't strum alone...
be a part of the largest online Christian music community. Browse thousands of guitar tabs and chat w/ musicians like yourself.


It's Free!

This tab has been rated a 4.19 out of 5 for accuracy. (26 votes)Sorry, but you must be logged in to rate this tab.
Click here to log-in, or you can click here to register.
(Registration is free)

All songs owned by corresponding publishing company. If you make copies of any song on this website, be sure to report your usage to CCLI.
Submitted by: turkweed

Title: What The World Will Never Take
Artist: United
Album: Look to You

awesome song off of United's newest cd. its actually pretty simple.

Intro/Verse: A D
riff:      
e|--------------------------------------------------------------------
B|--------------------------------------------------------------------
G|--------------------------------------------------------------------
D|-----777-6-6-6h7------777-6-6-6h7------777-6-6-6h7------777-6-6-6h7-
A|-----------------------------------5-5-------------5-5--------------
E|-5-5--------------5-5-----------------------------------------------x4

Pre-Chorus: D F# B
            D A B A
riff:

G|-6-6-4-6-6-4-6-6-4-6-6-4-6 x2

Chorus: A D F# B D
        A F# B D

This is how i play it:
   A            D    F#       B    D
e|------------------------------------
B|--------------7777-11111111------777
G|--------------7777-11111111------777
D|-777777777777-5555--9-9-9-9-9999-555
A|-777777777777---------------9999----
E|-555555555555---------------7777----
 
   A            F#              B     D
e|---------------------------------------
B|--------------11--11--11--11-----------
G|---------------9---9---9---9--------777
D|-777777777777--9---9---9---9--9--9--777
A|-777777777777-----------------9--9--555
E|-555555555555-----------------7--7-----  end on the A

Second verse is the same thing as first only shorter.
Second chorus is the same just repeat once.

Bridge: Drums and bass line on A note for a couple seconds. and then..

Solo:

e|----------------------------------------------
B|-------10-------10----10-------10-12-12b12-10-
G|-11-11----11-11----11----10-10----------------
D|----------------------------------------------
A|----------------------------------------------
E|----------------------------------------------

e|-----------------------------------
B|-----------------------------------
G|-----6-----6-----------8-----8---8\
D|-7-7---7-7---7-7---9-9---9-9---9---
A|-----------------------------------
E|-----------------------------------

e|----------------------------------------------
B|-------10-------10----10-------10-12-12b12-10-
G|-11-11----11-11----11----10-10----------------
D|----------------------------------------------
A|----------------------------------------------
E|----------------------------------------------

e|------------------------------------------------------(build up on the B)
B|-------------------------------------------------------------------------
G|-----6-----6-----------8-------8---8-----8-----8---8--88--88-*8^8--88@@--
D|-7-7---7-7---7-7---9-9---9-9-9---9---9-9---9-9---9---99-9-9-@9-*999999---
A|-----------------------------------------------------------^not exactly what
E|-------------------------------------------------------------he does but you 
                                                                get the picture

little bass riff during second half of solo:

G|---------------------------------------------
D|------------------------------------8h9999999
A|-9-9-9-9-11-8-8-8-8/0-0-0-0-22222222---------
E|---------------------------------------------

Chorus x2

well thats pretty much it. please post corrections! any questions or anything,
feel free to email me: imahillohyeahthatsmeonebighill@hotmail.com. God Bless!!

Comments about this tab

guitarguy1020 - 2005-04-15

Great Job!!! : )


aaron22 - 2005-04-24

i think u r wrong b causei noe the whole song cause i actually play for my youth group on fridays and im only 13'z and i noe the intro is lyk diz

E-------------- E----------------------
B-------------- B----------------------
G-------------- G----------------------
D-----7666h7--- D------7666h7----------
A-------------- A--55------------------
E--55---------- X2 E---------------------- X2

E------------------------------------------
B------------------------------------------
G------------------------------------------
D--11-11-9-11-11-9-11-11-9-11^13----------- x2
A------------------------------------------
E------------------------------------------

THATS HOW U DO IT THE RIGHT WAY
(MKAY) -

BY THE WAY ITS NOT ME AARON ITS GEN A FILO CHURCH
AND GEN WROTE IT

ENJOY!!


aaron22 - 2005-04-24

i think u r wrong b causei noe the whole song cause i actually play for my youth group on fridays and im only 13'z and i noe the intro is lyk diz

E-------------- E----------------------
B-------------- B----------------------
G-------------- G----------------------
D-----7666h7--- D------7666h7----------
A-------------- A--55------------------
E--55---------- X2 E---------------------- X2

E------------------------------------------
B------------------------------------------
G------------------------------------------
D--11-11-9-11-11-9-11-11-9-11^13----------- x2
A------------------------------------------
E------------------------------------------

THATS HOW U DO IT THE RIGHT WAY
(MKAY) -

BY THE WAY ITS NOT ME AARON ITS GEN A FILO CHURCH
AND GEN WROTE IT

ENJOY!! !!frear the lord JESUS CHRIST!!!!


anewdoman - 2005-04-29

What the World Will Never Take
Marty Sampson / Matt Crocker / Scott Lidgerwood

Verse 1
A
With all I'm holding inside
D
With all my hopes and de - sires
A
And all the dreams that I've dreamt


Verse 2

With all I'm hoping to be
And all that the world will bring
And all that fails to compare

PRE CHORUS
D F#m Bm D
You say You want all of me
A Bm A
I wouldn't have it any other way


Chorus 1
A
I've got a Savior; And He's liv - ing in me
D F#m Bm D A
Who - a I wanna know, I wanna know You to - day
(A)
And You're the best thing, That has happened to me
F#m Bm D A
And the world will never take; The world will never take You a - way
A D A
(TAG LINE @ END) No one could ever take You a - way (2xs)



relientkboy - 2005-05-06

Hey I think Aaron or Gen??? whoever is almost right instead of three picks on fret 6 its 4 and then hammer on, on a fifth pluck. It's pretty fast but I reckon its right and my dad who's been playing for 21 yrs. Well yeah awesome tab!


takingbcksunday - 2005-05-15

Everything is good from what i saw on the original tab. the 646464 part is played on the G not the D. Watch the Dvd. The D sounds to bassy.


TheRealEvidence - 2005-05-26

Hey everyone...just to let all of u know...i saw hillsong united twice last week and this week in montreal and ottawa...there soooo amzing!!!...anyways... they play it the way the original tab was...so its all good...hope this helps everyone...l8er and god bless
The Real Evidence
Paul L'Ecuyer


swimmer009 - 2005-06-01

he y i jus tsaw them at yc!!!!!! in edmoton this weekend may 27-29 it was soooo sweet and united was cool the speakers where awsoem it rocked


sixstringes777 - 2005-06-30

its hard to tab every part because they have six guitars on stage.


SGuy - 2005-07-05

Also, with the Intro starting riff, you dont have to hit the fifth fret on the low E string, you can also hit the A string as an open. I find it easier and they pretty much sound the same.


guitar guru - 2005-07-19

I play the intro tab like this:

e-----------------------------------------------------------------------
B-----------------------------------------------------------------------
G-------2--1-1-1-2--------2--1-1-1-2------2--1-1-1-2--------2--1-1-1-2--
D--------------------------------------0-0------------0-0---------------
A--0-0---------------0-0------------------------------------------------
E-----------------------------------------------------------------------

Hope that helps


supaduk7 - 2005-08-13

A few little mistakes here and there, but it'll pass for now.


krndanxd - 2005-08-15

when you the intro you have to mute it(at the m)
e------------------------------------------------------------------------------
b------------------------------------------------------------------------------
g------------------------------------------------------------------------------
d------7-6m-6-7---------7-6m-6-7----------------7-6m-6-7----------7-6m-6-7-----
a-----------------------------------------5-5---------------5-5----------------
E--5-5-----------5-5-----------------------------------------------------------

at the pre chorus

g---6-4-6-6-4-6-6-4-6-6-4-6-6-4-6-6-4-6-6-4-6-6-----------


the solo
e-------5---5-----5---------5-7-7b-7------------
b--7-7----7----7-----7-6-6----------------------
g-----------------------------------------------
d-----------------------------------------------
a-----------------------------------------------
E-----------------------------------------------

e-----------------------------------------------
b-----------------------------------------------
g------6------6----6-------8------8----8--------
d--7-7----7-7----7-----9-9----9-9-----9---------
a-----------------------------------------------
E-----------------------------------------------x2

the second time hold the --------8---------8
----9-9-------9-9--


guitar4godjosh - 2005-09-05

COOL SONG BUT IF ANYONE CAN FIND A MORE ACURATE PRE CHORUS COZ IVE BEEN WATCHING THE DVD LIKE A HAWK AND ITS NOTHING LIKE WHATS BEEN POSTED BUT I CAN'T WORK OUT WHAT IT IS

GOD SPEED
THANKS


supaduk - 2005-10-01

I've been playing this song like this for ages and this afernoon i listened to the real song on the United Live CD - and you wouldn't belive it - this tab is so wrong it isn't funny - seriously, you should reconsider before ever submitting anoth tab - it makes me SICK !!!!!!!!!!!! i'm felling nautious already......


B-rad - 2005-10-10

The F# is F#m, and the B is a Bsus


druming4god - 2005-10-14

FOR THE PRE CHOURUS I THINK IT GOES LIKE THIS

PRECHORUS:

A|--66-4-66-4-66-4-67646-6-4-66-4-66-4-67646--|

CHOURUS:
A
I GOT.......................


druming4god - 2005-10-14

YOU GET THE PICTURE FOR THE PRECHOURUS....RIGHT....HOPE SO


GOD BLESS


guitar4godjosh - 2005-10-27

thanks man its cool but its noy how united play it.

god speed


pianostuf1 - 2005-11-02

i would love it if people would realize that your all typing hte same notes its just different ways of playing it...and if your going to say the tab is wrong supaduk you should offer your own correction not just criticize him...i'm pretty learned in music and all the notes sound right to me and its in the right key...what more can you ask for...


mmggppmgp - 2005-11-12

umm yah i agree with the piano dude... man


oh well, i think it sounds cool if u do pinch harmonics for the prechorus leads. It is not how they play it, but it just sounds really cool. Try it, it makes me happy.


CHRiSTculture - 2005-11-30

Alright, cut him some slack. You think it's not that great. Go make a tab. See how great you do it.

Good job, man. I like, I like.


[SG]special_Nex - 2005-12-21

hmm datz kinda wronge.. the solo? well it may not be wrong who knows... but i do my solo like thisheheh

e|---------------------------------------------------
b|----------10---------10----10-----------10--13b-13-
g|---11-11------11--11---11-----11--10-10------------
d|---------------------------------------------------
a|---------------------------------------------------
E|---------------------------------------------------

e|---------------------------------------------------
b|-------2-----2-----2----------4----4-----4---------
g|---2-2---2-2----2-----2---4-4---4-4---4----4-------
d|---------------------------------------------------
a|---------------------------------------------------
E|---------------------------------------------------


e|---------------------------------------------------
b|----------10---------10----10-----------10--13b-13-
g|---11-11------11--11---11-----11--10-10------------
d|---------------------------------------------------
a|---------------------------------------------------
E|---------------------------------------------------


e|---------------------------------------------------
b|-------2-----2-----2----------4----4-----4---------
g|---2-2---2-2----2-----2---4-4---4-4---4----4-------
d|---------------------------------------------------
a|---------------------------------------------------
E|---------------------------------------------------

e|---------------------------------------------------
b|-------4-----4-----4----------4----4-----4--------- ( Onli this part im
g|---4-4---4-4----4-----4---4-4---4-4---4----4------- 100% shure hehe
d|--------------------------------------------------- sorrie )
a|---------------------------------------------------
E|---------------------------------------------------



well datz how i do mine, not shure if its all right, as long as we Praise God , Amen?

aitez igotta go to school now cya Godblesz...


clewis - 2006-02-01

nice


manilacoke3 - 2006-04-24

whoa [SG]special_Nex,you went from 11th to 2nd fret? that's way too far.
but anyway,if that's the way you're comf'table with, then good.

i think think the 1st tabber did great.Bends are done easier on the 10th of the B string rather than the 7th of E1.

everytime you play music,just remember that our audience is God.
what matters most is not by the way you play it,
but by the reason you play it.

godbless everyone!


peavey_ax - 2006-06-05

Thanks this tab is sweet but when I play guitar in youth group I only hit
the D-7 once in the intro tab. God Bless.


JjamieE - 2006-06-07

hey as far as i no,from music in the music book the chords from the end of the verse go
Dmaj9
and all that fails to compare

pre chorus:
F#m B5 Dmaj9
you say you want all of me
A B5 A
i wouldnt have it any other way


and then the rest is the same as what is at the top
the weirder chords
Dmaj9 B5
e--5- e--4-
B--5- B--4-
G--6- G--4-
D--7- D--4-
A--5- A--6-
E--5- E--4-

hope this helps


wowbertmz024 - 2006-07-24

I think the chords from the bridge is wrong because I play it with my youth group and some of the tabs is wrong


wowbertmz024 - 2006-07-24

BUt the solo part is great!


5isakoolnumber - 2007-01-29

great tab
( i have the shortest comment)
yesss!


Add a comment/correction

Complimentary Christian Ringtones
Dadamobile and CGR have teamed up to bring your favorite Christian artists right to your phone. Sign up today and get 10 complementary ringtones!
Tab Country
Did you know CGR has a sister site w/ country guitar tabs? Well we do! Its called Tab Country. It has a great archive with a lot of country tabs.
Rockin Tabs
Are you looking for a site that has rock guitar tabs? Then Rockintabs.com is the place for you. It is a budding site with many rock guitar tabs. Submit your tab today.
Tab Gallery
Tab Gallery has a compilation of christian, rock, and country tabs all in one place. Come visit us.