Guitar Tabs
song title    band name

Join Us Today!

Don't strum alone...
be a part of the largest online Christian music community. Browse thousands of guitar tabs and chat w/ musicians like yourself.


It's Free!

This tab has been rated a 4.00 out of 5 for accuracy. (1 vote)Sorry, but you must be logged in to rate this tab.
Click here to log-in, or you can click here to register.
(Registration is free)

All songs owned by corresponding publishing company. If you make copies of any song on this website, be sure to report your usage to CCLI.
Submitted by: Handsome

The Evan Anthem
Goodnight, Good Fight
2004 Mono VS Stereo

I am so glad someone started up some The Evan Anthem tabs. They are a great band.
They have played with Relient K (my favourite), House of Heroes, Emery and many
other great bands. This is number 2 on Prologue, and one of the best guitarwise.

Intro/Verse - Guitar 1
 Part 1                   Part 2
e--------------           e-------
B--------------           B-------
G--------------           G-------
D-99999-999-99-           D-7---7-
A-99999-999-99-           A-5---5-
E-77777-777-77-           E-3---3-
  Bm                        G2
                            It feels lonely out...
 Play it like this: P1 x4  P2 x1 [P1 x2 P2 x1]x2

Intro/Verse - Guitar 2 - Come in after 1x
Part 1
e----------------------------------   
B----------------------------------   
G-11-11-11-11-11--11-11-11--11-11--      
D-x--x--x--x--x---x--x--x---x--x--- (same rythm as guitar 1)       
A-9--9--9--9--9---9--9--9---9--9---
E----------------------------------

Part 2
e-------10---10-------10---10-
B---10-----10-----10-----10---
G-12--12--------12--12--------
D-----------------------------
A-----------------------------
E-----------------------------
 It feels lonely out...

 Play it like this: P1 x3  P2 x1 [P1 x2 P2 x1]x2


(*you can play Part 1 with 1 guitar, as a chord, like this:)
e---------------------------------
B---------------------------------
G-11-11-11-11-11--11-11-11--11-11-
D-9--9--9--9--9---9--9--9---9--9--
A-9--9--9--9--9---9--9--9---9--9--
E-7--7--7--7--7---7--7--7---7--7--



Pre-Chorus - Guitar 1
e------------------------------------------------
B------------------------------------------------
G-------------------------444-444-22--444-444-22-
D-999-999-77--999-999-77--555-555-55--555-555-55-
A-999-999-99--999-999-99--555-555-55--555-555-55- x2
E-777-777-77--777-777-77--333-333-33--333-333-33-
  second time: One day I'll find this town out...
Pre-Chorus - Guitar 2
e-------                            
B-------
G------- Play, palm muted, while
D-16xxx- bringing the wah pedal
A-14xxx- up and down slowly, then -->  A-14h16xxx-16h17-17- 
E------- listen to get it right
  Bm
          play the whole thing 2 times

Chorus-Guitar 1 
e------------
B------------
G------------
D-9--7--5--7-
A-9--7--5--7- x2
E-7--5--3--5-
  Bm A  G  A
        And everything that goes on...

Chorus - Guitar 2
Part 1
e-------------------------------------------------------------------------
B-------------------------------------------------------------------------
G-11-11-11-9-7-6-7-7-7-6-7-9-11-12--14--12--12--14---14--12--11-11--12--6-
D-x--x--x--x-x-x-x-x-x-x-x-x-x--x---x---x---x---x----x---x---x--x---x---x-
A-9--9--9--7-5-4h5-5-5-4h5-7-9--10--12--10--10--12---12--10--9--9-h-10--4-
E-------------------------------------------------------------------------
Play this once

Part 2
e----7-5-----7---7-5---------7-5---------7-5------
B--7-----8-7---7-----8-7-5h7-----8-7-5h-7-----8-7-
G-4-----------------------------------------------
D-------------------------------------------------
A-------------------------------------------------
E-------------------------------------------------
  Goodnight, good fight...

e-------------------------------------------------
B-5-7-5h3-3-5h7-3-5h7-3-5h7-3-5h7-3-5~-3h0--------
G-------------------------------------------------
D-------------------------------------------------
A-------------------------------------------------
E-------------------------------------------------
 Every thing that goes on...
All that once^

then Pre-chorus x1

Post-Chorus - Guitar 1
e------------
B------------
G------------
D-9--7--5--7-
A-9--7--5--5- x2
E-7--5--3--3-
  Bm A  G  G2
 Taken away...

Post-Chorus - Guitar 2
e-------------------------------------------------------
B-------------------10----------10-10-------10----------
G------11--------11----------11----------------11-12-11-
D-11-9----9-11-9-------11-12----------11-12------------- x2
A-------------------------------------------------------
E-------------------------------------------------------

Intro/Verse Part 1 x4

Chorus

Post-Chorus

Intro/Verse Part 1 x1 Let the last chord ring...


That's it... I think it's pretty much perfect, but maybe a little hard to 
read... I hope I made it clear enough, but there's a lot of parts and it 
may get confusing! Enjoy the tab, it's a great song and fun to play.

Kenny B

(Please check out my band:)
www.purevolume.com/kennybtheexponents
www.myspace.com/kennybandtheexponents
MATH ROCK!

Comments about this tab

sanctusfootrock - 2008-08-22

thanks for the tab!

I'm so glad Evan Anthem got on here. they rock.

I'll try this out and see how it flies...

j/w could you tab We Were searching? if you don't have it you can download it on their purevolume.

~dawn


Add a comment/correction

Complimentary Christian Ringtones
Dadamobile and CGR have teamed up to bring your favorite Christian artists right to your phone. Sign up today and get 10 complementary ringtones!
Tab Country
Did you know CGR has a sister site w/ country guitar tabs? Well we do! Its called Tab Country. It has a great archive with a lot of country tabs.
Rockin Tabs
Are you looking for a site that has rock guitar tabs? Then Rockintabs.com is the place for you. It is a budding site with many rock guitar tabs. Submit your tab today.
Tab Gallery
Tab Gallery has a compilation of christian, rock, and country tabs all in one place. Come visit us.