Guitar Tabs
song title    band name

Join Us Today!

Don't strum alone...
be a part of the largest online Christian music community. Browse thousands of guitar tabs and chat w/ musicians like yourself.


It's Free!

This tab has been rated a 4.20 out of 5 for accuracy. (10 votes)Sorry, but you must be logged in to rate this tab.
Click here to log-in, or you can click here to register.
(Registration is free)

All songs owned by corresponding publishing company. If you make copies of any song on this website, be sure to report your usage to CCLI.
Submitted by: YieldedOne

"Take Me In" - Kutless

Album: "Strong Tower"

Author: Dave Browning

©1987 Glory Alleluia Music. 
(Admin. by Tempo Music Publications, Inc.)
All rights reserved. International copyright secured.
CCLI song #19272

Tabbed By Rob Price Tragic Comic Studios, comments or questions
can be sent to rob@tcstudios.com

Drop C# Tuning

C#  G#  C#  F#  A#  d#


Intro: (This isn't perfect, but it's enough to get ya started)

Guitar 1 (Medium Distortion)
          F#              D         E        D       E
d# [-------------------------------------------------------------]
A# [---6/8-------------------------6/8---------------------------]
F# [-7---------------------------7---------------7-7 ~ ----------]
C# [-------------------------------------------------------------] x 2
G# [-------------------------------------------------------------]
C# [-------------------------------------------------------------]

Guitar 2 (Distortion and Chorus)
          F#              D         E        D       E
d# [-------------------------------------------------------------]
A# [-------------------------------------------------------------]
F# [----------------------------------222-0----------------------]
C# [---------8-8-7-5-5-5----3/5 53-------0-------3/5\3-----------] x 2
G# [-------5--5-----5--------------------------------------------]
C# [------5-----------5-5\1---------33-------1-1-----------------]


For the verse, just hit and miss with the intro riffs, and add the 
Acoustic Guitar part that I've listed at the bottom if you desire.


Chorus
         F#        E       D    E    F#  D  E
d# [--xxxxxxxx--xxxxxxxx--xxxx-xxxx-xxxx-xx-xx-------------------]
A# [--xxxxxxxx--xxxxxxxx--xxxx-xxxx-xxxx-xx-xx-------------------]
F# [--xxxxxxxx--xxxxxxxx--xxxx-xxxx-xxxx-xx-xx-------------------]
C# [--55555555--33333333--1111-3333-5555-11-33-------------------]
G# [--55555555--33333333--1111-3333-5555-11-33-------------------]
C# [--55555555--33333333--1111-3333-5555-11-33-------------------]


This is the Acoustic Guitar part I've added for extra fullness. It
seems that I can hear some light strumming of an acoustic in their
recording anyhow, so use it if you wish. 

Capo on 3, Tune 1/2 Step down

Chord formations: (These aren't the actual Chord Names)


      Em  C   D
d# [--0---x---x--]
A# [--0---1---3--]
F# [--0---0---2--]
C# [--2---2---0--]
G# [--2---3---x--]
D# [--0---x---x--]


Verse:

Em	C

D	C	D

Em	C

D  	C	D    

Chorus:

Em	D

C       D	Em C D

Em      D

C       D       Em


This is not 100% perfect, but it's extremely close.  I've only heard
the song 3 or 4 times, and I don't have the CD to sit down with and
work everything out perfectly.  God Bless and enjoy, Rob.

Comments about this tab

Boom-Boom - 2005-03-16

I know you said its not perfect but even with the good job you did the 2nd guitars intro part is confusing me because im hearing something different and i think theres more. I'm not a great tab guy so I wouldnt know how to pick out what it is, but hopefully more people have stuff to add, thanks

Boom-Boom


lildrummerboy88 - 2005-04-26

You can play this song in regular tuning. Chords are F#m D E on the verses and F#m E D on the choruses.


KutlessRocks842 - 2005-05-04

The second guitar part sounds almost 100% right. It sounds like theres a little bit missing but good job on the the tab.


All4Him0687 - 2005-05-16

Great Tab, if you dont want to do the whole drop C# tuning thing you can just
put a capo on the 2nd fret:
1 verse:
Em C D Em D
Em C D Em D
and the chorus ive just started workin on, but it sounds pretty close to the
cd to me


ryan_grooms22 - 2005-05-18

you did pretty good but the way i figured it out is abit different
i will show you

Artist:Kutless
Album:Strong Tower
Song:Take Me In
Tuning:Drop D

Notation Guide:

h-hammer-on
/-slide
^-strum down
v-strum up

Intro:2x

E)---------------------------------------------------------------------------)
B)----5h7--------------------------------------5h7---------------------------)
G)-6-----------------------------------------6-----------------------6-6---6-)
D)-----------7-7-6-4------------2/4---4---------------6-----6----4-4-----4---)
A)---------4---------4-4----------------4---------------4--4-4-4-------------)
D)--------4-----------4----0--0-----0--------------4-4--------4--------------)

Verse:2x

E)----------------------------------------------------------------------)
B)--7-7-7-7-7-7-7--3-3-3-3-3-3-3--5-5-5-5-5-5-5--3-3-3-3-3-3--5-5-5-5-5-)
G)--6-6-6-6-6-6-6--2-2-2-2-2-2-2--4-4-4-4-4-4-4--2-2-2-2-2-2--4-4-4-4-4-)
D)--4-4-4-4-4-4-4--0-0-0-0-0-0-0--2-2-2-2-2-2-2--0-0-0-0-0-0--2-2-2-2-2-)
A)--4-4-4-4-4-4-4--0-0-0-0-0-0-0--2-2-2-2-2-2-2--0-0-0-0-0-0--2-2-2-2-2-)
D)--4-4-4-4-4-4-4--0-0-0-0-0-0-0--2-2-2-2-2-2-2--0-0-0-0-0-0--2-2-2-2-2-)
^ ^ v ^ v ^ v and so on………...................................
strumming is the same throughout The verse

Chorus:2x

E-----------------------------------------------------------------------------)
B-----------------------------------------------------------------------------)
G-----------------------------------------------------------------------------)
D--4-4-4-4-4-4-4-4--2-2-2-2-2-2-2-2--0-0-0-0-0--2-2-2-2-2--4-4-4-4--0-0--2-2--)
A--4-4-4-4-4-4-4-4--2-2-2-2-2-2-2-2--0-0-0-0-0--2-2-2-2-2--4-4-4-4--0-0--2-2--)
D--4-4-4-4-4-4-4-4--2-2-2-2-2-2-2-2--0-0-0-0-0--2-2-2-2-2--4-4-4-4--0-0--2-2--)

2nd verse the same 2x
But guitar 2 sounds like it's playing the intro
Chorus 2x
3rd verse both guitars play intro
Chorus 4x

4th time of last chorus

E--------------------------------------------------------------------------)
B--------------------------------------------------------------------------)
G------------------------------------4-4-4-4-4--6-6-6-6-6--7-7-7-7-7-7-7-7-)
D--4-4-4-4-4-4-4-4--2-2-2-2-2-2-2-2--4-4-4-4-4--6-6-6-6-6--7-7-7-7-7-7-7-7-)
A--4-4-4-4-4-4-4-4--2-2-2-2-2-2-2-2--2-2-2-2-2--4-4-4-4-4--5-5-5-5-5-5-5-5-)
D--4-4-4-4-4-4-4-4--2-2-2-2-2-2-2-2----------------------------------------)

E)----------)
B)----------)
G)----------)
D)-0--2--4--)
A)-0--2--4--)
D)-0--2--4--)


Well that’s what I got I hope it helps
It sounds right to me if any mess up's sorry
God bless and keep on rockin for jesus

-ryan_grooms22


ryan_grooms22 - 2005-05-23

my tab is the same execpt that i figured the intro out a little better
god bless

-ryan_grooms22


tigerotool - 2005-05-26

For standard tuning this is pretty much the meat of the song.

Verse
Em C
D
Em D

Chorus
Em D
C Am Em
Em D
C D Em


Sizzlebyfire - 2005-07-03

Hello,

I found that if I put a capo on 2nd fret and play the following, it matches quite well. I plan on playing this duet, one accoustic and another electric with effect at my church for solos. This song is a great testimony to thos who don't know of the Old Testament Tabernacle and how it is laid out in the form of a cross and portrays the stature in Christ.

Verse:
Em
C
D
Em D
Em
C
D
Em D

Chorus:
Em D
C Am Em
Em D
C D Em


thirdday123 - 2005-07-13

please correct me if im wrong but the two comments before me both say the same chords but one says with a capo and the other in standard tuning so how can that be thanks


praise_habit - 2005-07-25

For the acoustic part, did anyone else find that Cadd9 (x32033) works better than a standard C? I'm certifiably tone-deaf, so I'm just looking for some opinions.


BenPuttGuitar - 2005-09-14

I think you guys are correct except in the chorus, I think it was:
Em Am
C G Em
Em Am
G D Em
I don't know if that's how they play it but that's how it sounds right to play.
Ben


guitarlizzie - 2005-09-17

Does anyone know the fingerings to F#?


guitarlizzie - 2005-09-18

Never mind. :)

Lizzie


rockstarwannabe - 2005-12-07

I'm new to this (and correct me if i'm wrong) but couldn't you just put a capo on the 1st fret instead of tuning down and then adding the capo?


KillingTheSin - 2011-11-21

@BenPuttGuitar listen to it again they had it right cause i played with the song.


Add a comment/correction

Complimentary Christian Ringtones
Dadamobile and CGR have teamed up to bring your favorite Christian artists right to your phone. Sign up today and get 10 complementary ringtones!
Tab Country
Did you know CGR has a sister site w/ country guitar tabs? Well we do! Its called Tab Country. It has a great archive with a lot of country tabs.
Rockin Tabs
Are you looking for a site that has rock guitar tabs? Then Rockintabs.com is the place for you. It is a budding site with many rock guitar tabs. Submit your tab today.
Tab Gallery
Tab Gallery has a compilation of christian, rock, and country tabs all in one place. Come visit us.