Guitar Tabs
song title    band name

Join Us Today!

Don't strum alone...
be a part of the largest online Christian music community. Browse thousands of guitar tabs and chat w/ musicians like yourself.


It's Free!

Audio Adrenaline - Good People

This tab has not yet been rated for accuracy.Sorry, but you must be logged in to rate this tab.
Click here to log-in, or you can click here to register.
(Registration is free)

All songs owned by corresponding publishing company. If you make copies of any song on this website, be sure to report your usage to CCLI.
"GOOD PEOPLE" by Audio Adrenaline
	(c. 1996 Forefront)
from the album "BLOOM" (c. 1996 Forefront)
as played by Nathan Moussa
	(http://www.geocities.com/SunsetStrip/3960)

Intro
| |------------3-------------------|------------2-------------------|
| |------------------------3-------|------------------------3-------|
|4|0-------------------------------|2-------------------------------|
|4|--------------------------------|--------------------------------|
| |--------------------------------|--------------------------------|
| |--------------------------------|--------------------------------|
   1 e & a 2 e & a 3 e & a 4 e & a  1 e & a 2 e & a 3 e & a 4 e & a



| |------------2-------------------|------------3-------------------|
| |------------------------3-------|------------------------3-------|
|4|4-------------------------------|5-------------------------------|
|4|--------------------------------|--------------------------------|
| |--------------------------------|--------------------------------|
| |--------------------------------|--------------------------------|
   1 e & a 2 e & a 3 e & a 4 e & a  1 e & a 2 e & a 3 e & a 4 e & a



| |------------3------(3)----------|------------2------(2)----------|
| |------------------------3-------|------------------------3-------|
|4|0-------------------------------|2-------------------------------|
|4|--------------------------------|--------------------------------|
| |--------------------------------|--------------------------------|
| |--------------------------------|--------------------------------|
   1 e & a 2 e & a 3 e & a 4 e & a  1 e & a 2 e & a 3 e & a 4 e & a



| |--------------------------------|--------------------------------|
| |3-------------------------------|--------------------------------|
|4|5---------------------------5---|----5---4---4---0---------------|
|4|5-------------------------------|------------------------2-------|
| |--------------------------------|--------------------------------|
| |--------------------------------|--------------------------------|
   1 e & a 2 e & a 3 e & a 4 e & a  1 e & a 2 e & a 3 e & a 4 e & a


Verse
| |--------------------------------|--------------------------------|
| |--------------------------------|--------------------------------|
|4|----4---------------4-------4---|----2-----------2---2-------2---|
|4|--------------------------------|---(0)---------(0)-(0)-----(0)--|
| |5-----------4-/-5---------------|--------------------------------|
| |--------------------------------|--------------------------------|
   1 e & a 2 e & a 3 e & a 4 e & a  1 e & a 2 e & a 3 e & a 4 e & a
   

                                            ^ = bend up and back down
| |--------------------------------|--------------------------------|
| |--------------------------------|--------------------------------|
|4|----2-----------2---2-------2---|----0---------------2^--2-0-----|
|4|---(3)---------(3)-(3)-----(3)--|---(2)----------------------2---|
| |--------------------------------|--------------------------------|
| |--------------------------------|--------------------------------|
   1 e & a 2 e & a 3 e & a 4 e & a  1 e & a 2 e & a 3 e & a 4 e & a



| |--------------------------------|--------------------------------|
| |--------------------------------|--------------------------------|
|4|----4---------------4-------4---|----2-----------2---2-------2---|
|4|--------------------------------|---(0)---------(0)-(0)-----(0)--|
| |5-----------4-/-5---------------|--------------------------------|
| |--------------------------------|--------------------------------|
   1 e & a 2 e & a 3 e & a 4 e & a  1 e & a 2 e & a 3 e & a 4 e & a


                                            ^ = bend up and back down
| |--------------------------------|--------------------------------|
| |--------------------------------|--------------------------------|
|4|----2-----------2---2-------2---|----0-----------0---2^--2-0-----|
|4|---(3)---------(3)-(3)-----(3)--|---(2)----------------------2---|
| |--------------------------------|--------------------------------|
| |--------------------------------|--------------------------------|
   1 e & a 2 e & a 3 e & a 4 e & a  1 e & a 2 e & a 3 e & a 4 e & a



| |--------------------------------|--------------------------------|
| |--------------------------------|--------------------------------|
|4|----4---------------4-------4---|----2-----------2---2-------2---|
|4|--------------------------------|---(0)---------(0)-(0)-----(0)--|
| |5-----------4-/-5---------------|--------------------------------|
| |--------------------------------|--------------------------------|
   1 e & a 2 e & a 3 e & a 4 e & a  1 e & a 2 e & a 3 e & a 4 e & a


                                            ^ = bend up and back down
| |--------------------------------|--------------------------------|
| |--------------------------------|--------------------------------|
|4|----2-----------2---2-------2---|----0-----------0---2^--2-0-----|
|4|---(3)---------(3)-(3)-----(3)--|---(2)----------------------2---|
| |--------------------------------|--------------------------------|
| |--------------------------------|--------------------------------|
   1 e & a 2 e & a 3 e & a 4 e & a  1 e & a 2 e & a 3 e & a 4 e & a



| |--------------------------------|--------------------------------|
| |--------------------------------|--------------------------------|
|4|----4---------------4-------4---|----2-----------2---2-------2---|
|4|--------------------------------|---(0)---------(0)-(0)-----(0)--|
| |5-----------4-/-5---------------|--------------------------------|
| |--------------------------------|--------------------------------|
   1 e & a 2 e & a 3 e & a 4 e & a  1 e & a 2 e & a 3 e & a 4 e & a


                                            ^ = bend up and back down
| |--------------------------------|--------------------------------|
| |--------------------------------|--------------------------------|
|4|----2-----------2---2-------2---|----0-----------0---------------|
|4|---(3)---------(3)-(3)-----(3)--|---(2)------2---2---------------|
| |--------------------------------|--------------------------------|
| |--------------------------------|--------------------------------|
   1 e & a 2 e & a 3 e & a 4 e & a  1 e & a 2 e & a 3 e & a 4 e & a






| |--------------------------------|--------------------------------|
| |--------------------------------|--------------------------------|
|4|--------------------------------|--------------------------------|
|4|3-----------5-------------------|--------------------------------|
| |1-----------3---------------5---|--------------------------------|
| |----------------------------3---|--------------------------------|
   1 e & a 2 e & a 3 e & a 4 e & a  1 e & a 2 e & a 3 e & a 4 e & a



| |--------------------------------|--------------------------------|
| |--------------------------------|--------------------------------|
|4|--------------------------------|--------------------------------|
|4|3-----------5-------------------|--------------------------------|
| |1-----------3---------------5---|--------------------------------|
| |----------------------------3---|--------------------------------|
   1 e & a 2 e & a 3 e & a 4 e & a  1 e & a 2 e & a 3 e & a 4 e & a


| |--------------------------------|--------------------------------|
| |--------------------------------|--------------------------------|
|4|--------------------------------|--------------------------------|
|4|3-----------5-------------------|3-----------5-------------------|
| |1-----------3-------------------|1-----------3-------------------|
| |--------------------------------|--------------------------------|
   1 e & a 2 e & a 3 e & a 4 e & a  1 e & a 2 e & a 3 e & a 4 e & a


| |--------------------------------|--------------------------------|
| |--------------------------------|--------------------------------|
|4|--------------------------------|--------------------------------|
|4|/5------------------------------|/5------------------------------|
| |/7------------------------------|/7------------------------------|
| |--------------------------------|--------------------------------|
   1 e & a 2 e & a 3 e & a 4 e & a  1 e & a 2 e & a 3 e & a 4 e & a


Chorus
| |------------3-------------------|------------2-------------------|
| |------------------------3-------|------------------------3-------|
|4|0-------------------------------|2-------------------------------|
|4|--------------------------------|--------------------------------|
| |--------------------------------|--------------------------------|
| |--------------------------------|--------------------------------|
   1 e & a 2 e & a 3 e & a 4 e & a  1 e & a 2 e & a 3 e & a 4 e & a



| |------------2-------------------|------------3-------------------|
| |------------------------3-------|------------------------3-------|
|4|4-------------------------------|5-------------------------------|
|4|--------------------------------|--------------------------------|
| |--------------------------------|--------------------------------|
| |--------------------------------|--------------------------------|
   1 e & a 2 e & a 3 e & a 4 e & a  1 e & a 2 e & a 3 e & a 4 e & a



| |------------3------(3)----------|------------2------(2)----------|
| |------------------------3-------|------------------------3-------|
|4|0-------------------------------|2-------------------------------|
|4|--------------------------------|--------------------------------|
| |--------------------------------|--------------------------------|
| |--------------------------------|--------------------------------|
   1 e & a 2 e & a 3 e & a 4 e & a  1 e & a 2 e & a 3 e & a 4 e & a



| |--------------------------------|--------------------------------|
| |3-------------------------------|--------------------------------|
|4|5---------------------------5---|----5---4---4---0---------------|
|4|5-------------------------------|------------------------2-------|
| |--------------------------------|--------------------------------|
| |--------------------------------|--------------------------------|
   1 e & a 2 e & a 3 e & a 4 e & a  1 e & a 2 e & a 3 e & a 4 e & a

-VERSE

-CHORUS (twice)

Break (Guitar 1)
| |----------------5-p-3-------3---|----2-----------2-------2-------|
| |----------------3-----------3---|----3-----------3-------3-------|
|4|----------------4---------------|--------------------------------|
|4|--------------------------------|------------0-------------------|
| |--------------------------------|--------------------------------|
| |--------------------------------|--------------------------------|
   1 e & a 2 e & a 3 e & a 4 e & a  1 e & a 2 e & a 3 e & a 4 e & a


(Guitar 1)
| |----------------3---2-------2---|----3-----------3---/---5-------|
| |0---------------3---3-------3---|----3-----------3---/---5-------|
|4|----------------4---------------|-----------(0)------------------|
|4|--------------------------------|--------------------------------|
| |--------------------------------|--------------------------------|
| |--------------------------------|--------------------------------|
   1 e & a 2 e & a 3 e & a 4 e & a  1 e & a 2 e & a 3 e & a 4 e & a


(Guitar 1)
| |3---------------5-p-3-------3---|----2-----------2-------2-------|
| |3---------------3-----------3---|----3-----------3-------3-------|
|4|----------------4---------------|--------------------------------|
|4|--------------------------------|------------0-------------------|
| |--------------------------------|--------------------------------|
| |--------------------------------|--------------------------------|
   1 e & a 2 e & a 3 e & a 4 e & a  1 e & a 2 e & a 3 e & a 4 e & a


(Guitar 1)                                          C5      D5
| |----------------3---2-------2---|----3-----------3---/---5-------|
| |0---------------3---3-------3---|----3-----------3---/---5-------|
|4|----------------4---------------|-----------(0)------------------|
|4|--------------------------------|--------------------------------|
| |--------------------------------|--------------------------------|
| |--------------------------------|--------------------------------|
   1 e & a 2 e & a 3 e & a 4 e & a  1 e & a 2 e & a 3 e & a 4 e & a












   G5 (Guitar 1)
| |3---------------5-p-3-------3---|----2-----------2-------2-------|
| |3---------------3-----------3---|----3-----------3-------3-------|
|4|----------------4---------------|--------------------------------|
|4|--------------------------------|------------0-------------------|
| |--------------------------------|--------------------------------|
| |--------------------------------|--------------------------------|
|  1 e & a 2 e & a 3 e & a 4 e & a  1 e & a 2 e & a 3 e & a 4 e & a
|
| (Guitar 2)
| |----------------8-p-7-------7---|----5-----------5-------5-------|
| |----------------8-----------8---|----7-----------7-------7-------|
|4|----------------7---------------|--------------------------------|
|4|--------------------------------|-----------(0)------------------|
| |--------------------------------|--------------------------------|
| |--------------------------------|--------------------------------|
   1 e & a 2 e & a 3 e & a 4 e & a  1 e & a 2 e & a 3 e & a 4 e & a


  (Guitar 1)                                        C5      D5
| |----------------3---2-------2---|----3-----------3---/---5-------|
| |0---------------3---3-------3---|----3-----------3---/---5-------|
|4|----------------4---------------|-----------(0)------------------|
|4|--------------------------------|--------------------------------|
| |--------------------------------|--------------------------------|
| |--------------------------------|--------------------------------|
|  1 e & a 2 e & a 3 e & a 4 e & a  1 e & a 2 e & a 3 e & a 4 e & a
|
| (Guitar 2)
| |----------------7---5-------5---|----7-----------8---/---10------|
| |----------------8---7-------7---|----8-----------8---/---10------|
|4|----------------7---------------|-----------(0)------------------|
|4|--------------------------------|--------------------------------|
| |--------------------------------|--------------------------------|
| |--------------------------------|--------------------------------|
   1 e & a 2 e & a 3 e & a 4 e & a  1 e & a 2 e & a 3 e & a 4 e & a


   G5 (Guitar 1)
| |3---------------5-p-3-------3---|----2-----------2-------2-------|
| |3---------------3-----------3---|----3-----------3-------3-------|
|4|----------------4---------------|--------------------------------|
|4|--------------------------------|------------0-------------------|
| |--------------------------------|--------------------------------|
| |--------------------------------|--------------------------------|
|  1 e & a 2 e & a 3 e & a 4 e & a  1 e & a 2 e & a 3 e & a 4 e & a
|
| (Guitar 2)
| (7)--------------8-p-7-------7---|----5-----------5-------5-------|
| |8---------------8-----------8---|----7-----------7-------7-------|
|4|----------------7---------------|--------------------------------|
|4|--------------------------------|-----------(0)------------------|
| |--------------------------------|--------------------------------|
| |--------------------------------|--------------------------------|
   1 e & a 2 e & a 3 e & a 4 e & a  1 e & a 2 e & a 3 e & a 4 e & a










  (Guitar 1)                                        C5      D5
| |----------------3---2-------2---|----3-----------3---/---5-------|
| |0---------------3---3-------3---|----3-----------3---/---5-------|
|4|----------------4---------------|-----------(0)------------------|
|4|--------------------------------|--------------------------------|
| |--------------------------------|--------------------------------|
| |--------------------------------|--------------------------------|
|  1 e & a 2 e & a 3 e & a 4 e & a  1 e & a 2 e & a 3 e & a 4 e & a
|
| (Guitar 2)
| |----------------7---5-------5---|----7-----------8---/---10------|
| |----------------8---7-------7---|----8-----------8---/---10------|
|4|----------------7---------------|-----------(0)------------------|
|4|--------------------------------|--------------------------------|
| |--------------------------------|--------------------------------|
| |--------------------------------|--------------------------------|
   1 e & a 2 e & a 3 e & a 4 e & a  1 e & a 2 e & a 3 e & a 4 e & a


Chorus 2
| |--------------------------------|--------------------------------|
| | false harmonic: goes for about five or six measures ------------|
|4|-/------------------------------|---(fades in and out)-----------|
|4[5]------------------------------|--------------------------------|
| |--------------------------------|--------------------------------|
| |--------------------------------|--------------------------------|
   1 e & a 2 e & a 3 e & a 4 e & a  1 e & a 2 e & a 3 e & a 4 e & a



| |--------------------------------|--------------------------------|
| |--------------------------------|--------------------------------|
|4|--------------------------------|--------------------------------|
|4|--------------------------------|--------------------------------|
| |--------------------------------|--------------------------------|
| |--------------------------------|--------------------------------|
   1 e & a 2 e & a 3 e & a 4 e & a  1 e & a 2 e & a 3 e & a 4 e & a



| |--------------------------------|--------------------------------|
| |--------------------------------|-rock chords fade in faintly----|
|4|--------------------------------|--------------------------------|
|4|--------------------------------|7---7---7---7---7---7---7---7---|
| |--------------------------------|5---5---5---5---5---5---5---5---|
| |--------------------------------|--------------------------------|
   1 e & a 2 e & a 3 e & a 4 e & a  1 e & a 2 e & a 3 e & a 4 e & a



| |--------------------------------|--------------------------------|
| |--------------------------------|--------------------------------|
|4|--------------------------------|--------------------------------|
|4|5---5---5---5---5---5---5---5---|5---5---5---5---5---5---5---5---|
| |3---3---3---3---3---3---3---3---|3---3---3---3---3---3---3---3---|
| |--------------------------------|--------------------------------|
   1 e & a 2 e & a 3 e & a 4 e & a  1 e & a 2 e & a 3 e & a 4 e & a


- Repeat Chorus Twice

Comments about this tab

No comments/corrections found. Add your own

Complimentary Christian Ringtones
Dadamobile and CGR have teamed up to bring your favorite Christian artists right to your phone. Sign up today and get 10 complementary ringtones!
Tab Country
Did you know CGR has a sister site w/ country guitar tabs? Well we do! Its called Tab Country. It has a great archive with a lot of country tabs.
Rockin Tabs
Are you looking for a site that has rock guitar tabs? Then Rockintabs.com is the place for you. It is a budding site with many rock guitar tabs. Submit your tab today.
Tab Gallery
Tab Gallery has a compilation of christian, rock, and country tabs all in one place. Come visit us.