Guitar Tabs
song title    band name

Join Us Today!

Don't strum alone...
be a part of the largest online Christian music community. Browse thousands of guitar tabs and chat w/ musicians like yourself.


It's Free!

This tab has been rated a 1.60 out of 5 for accuracy. (5 votes)Sorry, but you must be logged in to rate this tab.
Click here to log-in, or you can click here to register.
(Registration is free)

All songs owned by corresponding publishing company. If you make copies of any song on this website, be sure to report your usage to CCLI.
Submitted by: xJonathanxLee

Deeper
Hillsong United Records
Words and Music by Marty Sampson
Key of "F"

Light of  Men
F-C-G-C

Jesus...Hold me...
D-A-Bm-G-D-A

Lord My Soul delights....
D-A-Bm-G-D-A

Take Me Deeper...
Bm-A-D

By your Love...
F-C-G-C

Comments about this tab

xJonathanxLee - 2005-03-14

i'm sorry verse is F-Am-E-Am


davio_henderson - 2005-04-11

I am really struggling to get any musical sense out of that Tab??
Maybe the Chorus sounds like this?
G - D - Am - F - C - G?
can someone please tab this properly as I really have no idea


GATMAN - 2005-04-14

I think that's a bit better thanks davio? But can someone please finish this off?


guitarisgreen - 2005-06-21

Hey, i still don't think that it's right,
the chorus seems to be more in C major i think

has anyone figured it out yet?
Thanks


nebrination - 2005-06-24

i haven't transcribed the song completely, but if someone wants to run with what's below, please feel free to. hope this helps:

****************************************
intro/verse:

Dmadd2add4 C Gadd2 Am7
e-----------------------------------------------------------
B--5--------5--5--------5--0--------0--1-----------1--------
G-----0-----------0--------------2--------------0-----------
D--------3-----------5--------0--------------2--------------
A--5-----------3--------------------------0-----------------
E--------------------------3--------------------------------

Dm/F C/E E Am7 G/B
e-----------------------------------------------------------
B--------3-----------1--------------0---1-------------------
G--2--------2--0--------0--1-----2-----------------------0--
D-----0-----------2-----------2--------------2--------0-----
A-----------------------------------------0-----0-h2--------
E--1-----------0-----------0--------------------------------

i think the guitarist plays this with small variations through the song.
****************************************

don't be thrown off by the rhodes/wurly keyboard part when transcribing. guitarist is coming through the right stereo channel, so focus on the sounds coming from there.


emmanuel_mae - 2005-10-06

elow....i know this is a great tab... but can anyone can tab... the base part at the bridge..can u help me discover it..pls. ^_^


lctp2022 - 2005-11-05

This is the bass bridge, the first part is hard to here but it sounds right to me. Timing is weird so just listen to it. (3/5) is a slide and 2h3 is a hammer-on.

-----------------------------------------------------------------------------
--0---0-2-3----------------------------------0-2-3---3-2----2h3-2-0----------
3---3---------0-(3/5)-3--0-3-0-(3/5)-5-7----3-------3-----3------------------
-----------------------------------------------------------------------------

-----------------------------------------------------------------------------
--0---0-2-3----3-2----2h3-2---------------0----------------------------2-3---
3---3--------3------3-------2--0-2-3----3---3-0------------0-2-3-3h5---------
--------------------------------------------------1--1-0---------------------


lctp2022 - 2005-11-05

This is the bass-bridge, the first part is hard to here but it sounds right to me. Timing is weird so just listen to it. (3/5) is a slide and 2h3 is a hammer-on.

------------------------------------------------------------------------
--0---0-2-3----------------------------------0-2-3---3-2----2h3-2-0-----
3---3---------0-(3/5)-3--0-3-0-(3/5)-5-7----3-------3-----3-------------
------------------------------------------------------------------------

------------------------------------------------------------------------
--0---0-2-3----3-2----2h3-2---------------0--------------------------2-3
3---3--------3------3-------2--0-2-3----3---3-0-----------0-2-3-3h5-----
------------------------------------------------3-1--1-0----------------


Iam am Jeremy - 2005-11-07

um... i think that this tab is quite wrong
anyway good try


lctp2022 - 2005-11-07

oh yeah i tabbed it on guitar, play the bass tab an octave higher


Add a comment/correction

Complimentary Christian Ringtones
Dadamobile and CGR have teamed up to bring your favorite Christian artists right to your phone. Sign up today and get 10 complementary ringtones!
Tab Country
Did you know CGR has a sister site w/ country guitar tabs? Well we do! Its called Tab Country. It has a great archive with a lot of country tabs.
Rockin Tabs
Are you looking for a site that has rock guitar tabs? Then Rockintabs.com is the place for you. It is a budding site with many rock guitar tabs. Submit your tab today.
Tab Gallery
Tab Gallery has a compilation of christian, rock, and country tabs all in one place. Come visit us.