Guitar Tabs
song title    band name

Join Us Today!

Don't strum alone...
be a part of the largest online Christian music community. Browse thousands of guitar tabs and chat w/ musicians like yourself.


It's Free!

This tab has been rated a 3.00 out of 5 for accuracy. (2 votes)Sorry, but you must be logged in to rate this tab.
Click here to log-in, or you can click here to register.
(Registration is free)

All songs owned by corresponding publishing company. If you make copies of any song on this website, be sure to report your usage to CCLI.
Submitted by: mmggppmgp

This band is really cool I hear this song by them in the radio (Air1).
This band also have a track in the winter rock cd thing i bought recently.
I also just recently bought their album and this band has very awesome lyrics
and instruments. and plus some one is requesting for this bands songs... and
just adding this band for the sake of that guy and for every one who likes this 
band... 

Song: Maybe You
Artist: BDA
Album: Better Days Ahead
2004 Creative trust workshop

anyways this song is cool...

intro
  C#5/D5 D5/C#5
e---------------   -x
B-------------------x
G-6/7----7/6--------x
D-6/7----7/6---- 2x-x
A-4/5----5/4--------x
E---------------   -x scratch rythm
                      ^^^^^^^^^^^^^
and when like the drums start clickin
    B   Bb       A  Ab     G     A   
e-----------xx-----------------------
B-----------xx-----------------------
G-----------xx-----------------------
D---9---8---xx--7--6------5------7--
A---9---8---xx--7--6------5------7--
E---7---6---xx--5--4------3------5--

Verse: umm your preference... 
u can play like this
  C# D                                    E  C# D
e-x---x--------------------------------------x----
B-x---x--------------------------------------x----
G-x6/7x-----------------------------------9-7x6/7-
D-x6/7x-  again and again... then u hit  -9-7x6/7-
A-x4/5x-----------------------------------7-5x4/5-
E-x---x--------------------------------------x----

or just play the things on the G string... which is the octave or 8th from the root

Pre-Chorus

B   Bb5        A5 Ab5    G5     A5   
e-----------xx-----------------------
B-----------xx-----------------------
G-----------xx-----------------------
D---9---8---xx--7--6------5------7--
A---9---8---xx--7--6------5------7--
E---7---6---xx--5--4------3------5--

Chorus:
   D       G  F#   B   A   E  G(passing chord) umm all the chords are powa chords  
e--------------------------------
B--------------------------------
G-7----------------4---2--------- the timing is not exact but in chorus watch out
D-7--------5--4----4---2---2-(5)-  for the off beat chords
A-5--------5--4----2---0---2-(5)-
E----------3--2------------0-(3)-


Repeat Verse
Repeat Pre-Chorus
Repeat Chorus

um before the bridge u like palm mute G then go to A then to D
Listen to the cd for the timing... 
then...

Bridge:
  D5    B5   G5   A5                        F#5 G#5
                                             ^---^--- longer measures
e-----------------------------------------------------
B-----------------------------------------------------
G-7--------------------------------------------------- 
D-7-----9----5----7-- repeat several times--4----5----
A-5-----9----5----7-------------------------4----5----
E-------7----3----5-------------------------2----3----

yes n the solo thing

i hope yall know what to play when i just say the chord names

its basically x=scratchy rythm /=slide

DxExF#xxF#/GxxF#/G repeat a lot of times like its like 5 times

n like yah for the little solo thing 
i will only "TRY" to tab the solo things on like i think 3rd and 4th time
(DxExF#xxF#/GxxF#/G) is played... 
it may be not close so if u guys want figure it out... its all in D major scale
G-12b~12b~12b~11-----------------------------------------------------
D----------------14-12-14-this is where i get lost----12-14-15-14-12-
A--------------------------------------------------14----------------

G-------------------------------
D----12-14-15-14-12----12-10-12-
A-14----------------14---------- and the last time you like hit E... then to a high G

any ways .... it may be not close but u guys are smart

then chorus (first time from the solo thing is arpegio)

then DxExF#xxF#/GxxF#/GxDxExF#xxxD

Note... ummm you guys probably have a lot of corrections that comments... but i like that
i dont have a good ear and this is just to like give you an idea of this song
cause this song is really cool and i want sum1 to tab, and i dont see a tab so
i tried to do it myself... and my ear aint that good yet, so all the good tabbers
pls make this tab better... Corrections and Comments pls. michael_97124@hotmail.com
AIM- RockinFLip4Life

thanks for baring with my possible inaccuracy... i want yall to get an idea and
to hav a starting point

Comments about this tab

mmggppmgp - 2005-04-21

umm it may not be all in the maj scale cuz i forgot that there sum stuff we call accidentals... haha... oh well i c a lot of errors in tis song so pls edit it... im gonna need ur comments so we can hav an improved version of tis song...

Michael,

note: pls edit my tab ppl


mmggppmgp - 2005-04-25

neways... gimme an email at michael_97124@hotmail.com or contact me at RockinFlip4Life wen yall want me to tab "mystery of you" cuz i hav it down


gracebap30 - 2005-04-27

Hey wassup your tabs were great as far as I could see course I don't do tabs
but your chords were not right I'm gonna say this bluntly atal um my chords should be posted let me know if you think they sound better my address is
gracebap30@yahoo.com


mmggppmgp - 2005-04-27

thats awesum dude
... thanks


mmggppmgp - 2005-04-28

neways... i think i got the chord names wrong too because, i noe for a fact that all E's and F's and B's are minors ... if ur wondering y i keep on checkin on my tab it is because i wanna c if someone correct mine and help me realize my wrong doing and take this as a learning process... that is how I learn if yall are wondering haha


brother-helen - 2005-05-29

What are just the plain chords for this song? It would be awesome if one of u could let me know! Thanks!!


AAFanGuy25 - 2005-09-25

I play the intro like this (I think it's more accurate):

GI-6h7-7p6-I
DI-7-7-7-7-I
AI-5-5-5-5-I
EI-x-x-x-x-I

Verse:
GI-7p6h7-9p7p6h7-I
DI-7-7-7-7-7-7-7-I
AI-5-5-5-5-5-5-5-I
EI-x-x-x-x-x-x-x-I
D
GI-7p6h7-9p7p6h7-I
DI-7-7-7-7-7-7-7-I
AI-x-x-x-x-x-x-x-I
EI-7-7-7-7-7-7-7-I
B

listen to the recording for timing


Add a comment/correction

Complimentary Christian Ringtones
Dadamobile and CGR have teamed up to bring your favorite Christian artists right to your phone. Sign up today and get 10 complementary ringtones!
Tab Country
Did you know CGR has a sister site w/ country guitar tabs? Well we do! Its called Tab Country. It has a great archive with a lot of country tabs.
Rockin Tabs
Are you looking for a site that has rock guitar tabs? Then Rockintabs.com is the place for you. It is a budding site with many rock guitar tabs. Submit your tab today.
Tab Gallery
Tab Gallery has a compilation of christian, rock, and country tabs all in one place. Come visit us.