Guitar Tabs
song title    band name

Join Us Today!

Don't strum alone...
be a part of the largest online Christian music community. Browse thousands of guitar tabs and chat w/ musicians like yourself.


It's Free!

This tab has been rated a 3.70 out of 5 for accuracy. (10 votes)Sorry, but you must be logged in to rate this tab.
Click here to log-in, or you can click here to register.
(Registration is free)

All songs owned by corresponding publishing company. If you make copies of any song on this website, be sure to report your usage to CCLI.
Submitted by: thundercat08

Who I Am Hates Who I've Been
Relient K
MmHmm

Well this CD is released now, and it wasn't when I tabed this. But it's 
awesome and if you dont have it buy it.
rate this! Also I know its not 100% because on the intro riff the second 
time every time it's played(except for the intro)it's harmonized. But if you 
have three guitars figure it out yourself. Its' not that hard, but I just 
don't feel like tabbing it. Also there were some chords on the chorus that I've
changed alot but I think they're actually right now. And I caught a chord on 
the bridge that was on the wrong string so I changed that.. obviously no one 
caught that or if you did thanks alot for correcting it to tell me...
but other than the harmonized intro its 100%

TUNING:half step down (Eb Ab Db Gb Bb Eb) 

intro
guitar 1           2x...................................................then 
this along with the chords below
eb----------------------------------------------------------------|---------
Bb--5-0-9-0-7-0-5-0-4-0-5-0-7-0-4-0-4-0-5-0-4-0-5-0-7-0-9-0-4-0-5-|----55-4-
Db----------------------------------------------------------------|---------
Gb----------------------------------------------------------------|---------
Ab----------------------------------------------------------------|---------
Eb----------------------------------------------------------------|---------
                                                   
guitar 2
                   2x                      
eb----------------------------------------------------------------|---------
Bb----------------------------------------------------------------|---------
Gb----------------------------------------------------------------|---------
Db--22222222--44444444--66666666--22222222------------------------|----22-4-
Ab--00000000--22222222--44444444--22222222------------------------|----00-2-
Eb--------------------------------00000000------------------------|---------






                                                                  
verse 1:the fisrt part is piano then:
   (clean)                 (distortion)
eb--0~-0~-0~----------|----------------------------
Bb--0~-0~-0~----------|----------------------------
Gb--2~-4~-6~----------|--2222222222222222-444444444
Db--2~-4~-6~----------|--2222222222222222-444444444
Ab--0~-2~-4~----------|--0000000000000000-222222222
Eb--------------------|--**************** ********-
      2x                 *palm muted
(guitar2strums chords)

pre chorus:
eb-----------------------------|----------------------------------|
Bb-----------------------------|----------------------------------|
Gb----999-4-8888-----6666-4-4--|----999-4-8888-----------44444444-|
Db--2-xxx-4-xxxx-6-7-xxxx-4-4--|--2-xxx-4-xxxx-----------44444444-|
Ab--2-777-2-6666-6-7-4444-2-2--|--2-777-2-6666----7----7-22222222-|
Eb--0------------4-5-----------|--0------------44---55---********-|
                                               **   **

chorus:            __________                    __________
                  |          |                  |          |
eb--0000000000-----0000000000-----0000000000-----0000000000-000000-0000000-|
Bb--0000000000-----0000000000-----0000000000-----0000000000-000000-0000000-|
Gb--1111111111-444-6666666666-444-1111111111-444-6666666666-222222-4444444-|
Db--2222222222-444-6666666666-444-2222222222-444-6666666666-222222-4444444-|
Ab--2222222222-222-4444444444-222-2222222222-222-4444444444-000000-2222222-|
Eb--0000000000--------------------0000000000-------------------------------|

guitar 2 plays the same thing except for on the bracketed chords it plays.
(same for the other 2 chorus')
Gb-6-
Db-x-
Ab-4-                                                                        

play the intro after chorus without the ending chords

verse 2
        2x
eb----------------------------------------------------------------------|
Bb----------------------------------------------------------------------|
Gb-------------------2222222222222222-6666666666666666-4444444444444444-|
Db--2222222222222222-2222222222222222-6666666666666666-4444444444444444-|
Ab--2222222222222222-0000000000000000-4444444444444444-2222222222222222-|
Eb--0000000000000000-****************-****************-****************-|
     ***************                                   (the second time
                                                        let off the palm
                                                        mute half way)
      2x
eb-------------44444---|--------------------------------|
Bb-------------44444---|--------------------------------|
Gb-22222-44444-88888---|--2222222222222222-444444444----|
Db-22222-44444-66666---|--2222222222222222-444444444----|
Ab-00000-22222-44444---|--0000000000000000-222222222----|
Eb---------------------|--****************-*********----|

pre-chorus

eb-0~~--|----------------------------|----------------------------------|
Bb-0~~--|----------------------------|----------------------------------|
Gb-1~~--|----999-4-8888-----6666-4-4-|----999-4-8888-----------44444444-|
Db-2~~--|--2-xxx-4-xxxx-6-7-xxxx-4-4-|--2-xxx-4-xxxx-----------44444444-|
Ab-2~~--|--2-777-2-6666-6-7-4444-2-2-|--2-777-2-6666----7----7-22222222-|
Eb-0~~--|--0------------4-5----------|--0------------44---55---********-|
                                                     **   **
                                              
chorus                     
            
eb--0000000000-----0000000000-----0000000000-----0000000000-000000-0000000-|
Bb--0000000000-----0000000000-----0000000000-----0000000000-000000-0000000-|
Gb--1111111111-444-6666666666-444-1111111111-444-6666666666-222222-4444444-|
Db--2222222222-444-6666666666-444-2222222222-444-6666666666-222222-4444444-|
Ab--2222222222-222-4444444444-222-2222222222-222-4444444444-000000-2222222-|
Eb--0000000000--------------------0000000000-------------------------------|
                                                                            
bridge                                                                      

eb-----------------------------------------------------------------------|
Bb-----------------------------------------------------------------------|
Gb--------------------------5555-5~--66666666-22222222----------44444444-|
Db--66666666-77777777-22222-6666-6~--66666666-22222222-22222222-44444444-|
Ab--66666666-77777777-22222-3333-3~--44444444-00000000-22222222-22222222-|
Eb--44444444-55555555-00000-****-----------------------00000000----------|
    ******** ******** ***** 

play chorus one time 
outro

guitar 1           2x
eb----------------------------------------------------------------|----------|
Bb--5-0-9-0-7-0-5-0-4-0-5-0-7-0-4-0-4-0-5-0-4-0-5-0-7-0-9-0-4-0-5-|----55-4--|
Gb--*-*-*-*-*-*-*-*-*-*-*-*-*-*-*-*-------------------------------|----------|
Db------------(first time play palm mutes,second time-------------|----------|
Ab--------------play it all open)---------------------------------|----------|
Eb----------------------------------------------------------------|----------|
                                                   
guitar 2
eb----------------------------------------------------------------|----------|
Bb----------------------------------------------------------------|----------|
Gb---------66666666----------22222222-44444444-66666666-----------|----22-4--|
Db--22-22--66666666-22222222-22222222-44444444-66666666-22222222--|----22-4--|
Ab--22-22--44444444-22222222-00000000-22222222-44444444-22222222--|----00-2--|
Eb--00-00-----------00000000----------------------------00000000--|----------|
    ** **

Comments about this tab

jamforchrist123 - 2005-04-09

This tab is great. I did find a few things wrong, but I don't remember what they were.


jkim519 - 2005-09-28

Its pretty hard but i just gotta keep practicing :) God Bless!!


simmonds - 2005-11-11

sweet dude and as dude number 2 said God Bless(GB)


simmonds - 2005-11-11

!


Choysauce85 - 2005-11-17


awesome tab but your missing one part
the HARMONY to the intro riff!!

this comes in the 2nd time through of the phrase

the last part at the end is only played at the very end of the song

eb-------------------------------------------------------------------|---------
Bb-9-0-9-0-10-0-9-0-7-0-9-0-10-0-7-0-7-0-9-0-7-0-9-0-10-0-12-0-7-0-9-|-0-9-9-7~
Gb-------------------------------------------------------------------|---------

keep on rockin with God


SullysGibson - 2005-12-21

Hey great tab! But I listen and the 2nd guitarist is play somthing diferent in the back ground like so...

Play this the whole time
Gb--9--|
Db--X--|
Ab--7--|

then at the end of the chorus he play this...
Gb--9--8--9------13------11-|
Db--X--X--X------X---(3x-X--|
Ab--7--6--7------11------9--|
I'm pretty positive thats right...just listen really closly on the chorus and you'll hear it. Thanks and God Bless.


jfreaky_tirador - 2007-05-07

hey guys, big question & help, how do you tune it to half step down. i can't really figure it out. help please! tnx!


Add a comment/correction

Complimentary Christian Ringtones
Dadamobile and CGR have teamed up to bring your favorite Christian artists right to your phone. Sign up today and get 10 complementary ringtones!
Tab Country
Did you know CGR has a sister site w/ country guitar tabs? Well we do! Its called Tab Country. It has a great archive with a lot of country tabs.
Rockin Tabs
Are you looking for a site that has rock guitar tabs? Then Rockintabs.com is the place for you. It is a budding site with many rock guitar tabs. Submit your tab today.
Tab Gallery
Tab Gallery has a compilation of christian, rock, and country tabs all in one place. Come visit us.