Guitar Tabs
song title    band name

Join Us Today!

Don't strum alone...
be a part of the largest online Christian music community. Browse thousands of guitar tabs and chat w/ musicians like yourself.


It's Free!

This tab has been rated a 3.86 out of 5 for accuracy. (7 votes)Sorry, but you must be logged in to rate this tab.
Click here to log-in, or you can click here to register.
(Registration is free)

All songs owned by corresponding publishing company. If you make copies of any song on this website, be sure to report your usage to CCLI.
Submitted by: emochild1987

"Walls" 
Emery

(I took the version of Walls already on CGR and fixed it up a bit!)
It's in Drop Db

Intro dist (Are you listening...)

Gtr. 1
Eb|--------------------------------------------------|
Bb|--------------------------------------------------|
Gb|--------------------------------------------------|
Db|-00000--00--00000--00-0-77777--77-77-33333--33-33-|
Ab|-00000--00--00000--00-0-77777--77-77-33333--33-33-|
Db|-00000--00--00000--00-0-77777--77-77-33333--33-33-|


The fill right before the chorus. Also keyboard I believe.
It's also played during the (x355xx) and (x022xx) part of the chorus (below).
Eb|--------------------------------4------------4----------------|
Bb|--4-4-4h5-4--4-4-4h5-4----4-4-4---4----4-4-4---4--------------|
Gb|--------------------------------------------------------------|
Db|--------------------------------------------------------------|
Ab|--------------------------------------------------------------|
Db|--------------------------------------------------------------|

Sometimes... (verse)
Eb|-------------------------------|
Bb|-------------------------------|
Gb|-------55555-55555-22222-22222-|
Db|-0---0-55555-55555-22222-22222-|
Ab|-0---0-33333-33333-00000-00000-|
Db|-0---0-------------------------|

Your eyes...
Eb|-----------------------------|
Bb|-----------------------------|
Gb|-----------------------------|
Db|-0--0--555555--333333-(3333)-|
Ab|-0--0--555555--333333-(3333)-|
Db|-0--0--555555--333333-(3333)-|

These fights with your arms...
Gtr. 1
Eb|--------------------------------------|
Bb|--------------------------------------|
Gb|--------------------------------------|
Db|-77------55------33------55---(5)-5---|
Ab|-77------55------33------55---(5)-5---|
Db|-77------55------33------55---(5)-5---|

Gtr. 2
Eb|--------------------------------------------------|
Bb|--------------------------------------------------|
Gb|-(99)-9----(55)-5----(22)-22----(99)-99-(99)-99-9-|
Db|-(77)-7-x4-(33)-3-x4-(00)-00-x2-(77)-77-(77)-77-7-|
Ab|--------------------------------------------------|
Db|--------------------------------------------------|

Tear out these veins...
Eb|-------------------------------------------------------------------------|
Bb|-------------------------------------------------------------------------|
Gb|------------------------------------------------------------------7-7-7-|
Db|-7-7-7-7-7-7-7-7-5-5-5-5-5-5-5-5-3-3-3-3-3-3-3-3--0~---7777-------7-7-7-|
Ab|-7-7-7-7-7-7-7-7-5-5-5-5-5-5-5-5-3-3-3-3-3-3-3-3--0~---7777-------5-5-5-|
Db|-7-7-7-7-7-7-7-7-5-5-5-5-5-5-5-5-3-3-3-3-3-3-3-3--0~---7777-------------|

Gtr. 2
Eb|----------------------------------------------------------------------|
Bb|---------------------------------------10-6-3-------------------------|
Gb|-9-9-9-9-9-9-9-9-5-5-5-5-5-5-5-5-22-22-x--x-x-99999999-55555555-------|
Db|-7-7-7-7-7-7-7-7-3-3-3-3-3-3-3-3-00-00-7--3-0-xxxxxxxx--xxxxxxxx------|
Ab|----------------------------------------------77777777-33333333-------|
Db|----------------------------------------------------------------------|

The little solo right before verse 2
Eb|----------------------------------|
Bb|----------------------------------|
Gb|----------------------------------|
Db|-10--10/3--3\9--9\12--(00-00-0)-0-|
Ab|----------------------(00-00-0)-0-|
Db|----------------------(00-00-0)-0-|


Let the walls have their say...
(10 off and on)
Eb|--------------------|
Bb|-(1010101010101010)-|
Gb|-(9-9-9-9-9-9-9-9-)-|
Db|-(7-7-7-7-7-7-7-7-)-|
Ab|--------------------|
Db|--------------------| Play this a bunch of times

This comes in with the fill part
Eb|------------------------------------|
Bb|------------------------------------|
Gb|-99999999--10-10-10-10-10-10-10-10--|
Db|------------------------------------|
Ab|------------------------------------|
Db|------------------------------------|

There's no conversation...
Eb|-------------------|
Bb|-------------------|
Gb|-------------------|
Db|-00------333-----|
Ab|-00------333------|
Db|-00------333------|

Wake from these dreams...
Eb|-------------------|
Bb|-------------------|
Gb|-------------------|
Db|-00---00-33---33---|
Ab|-00---00-33---33---|
Db|-00---00-33---33---|

This is played along with the last part
Eb|--------------------------------------|
Bb|--------------------------------------|
Gb|-10-10-10-10-10-10-10-10--99999999----|
Db|--------------------------------------|
Ab|--------------------------------------|
Db|--------------------------------------|

The ending lead part (This place, These walls...)
(palm muted, through the end of song, VERY FAST, NO PAUSING)
Gtr. 1
Eb|--------------------|
Bb|--------------------|
Gb|-5-5-3-2-3-2--------|
Db|--------------3-2---| (end on "0")
Ab|--------------------|
Db|--------------------|

Gtr. 2 (at very end of song)
Eb|---------------|
Bb|---------------|
Gb|-7--7--7--7--7-|
Db|-7--7--7--7--7-|
Ab|-5--5--5--5--5-|
Db|-0--0--0--0--0-|

Presto!
Comments to awholtzapple@yahoo.com

Comments about this tab

Emery37 - 2005-04-20

SWEET TAB!! some1 finally got the ending lead part right! nice job


father - 2005-05-24

hey this is nice


mmggppmgp - 2005-08-31

good tab the little leads b4 the chorus and during the verses is 1 step lower than wut it is but good job on the tab


food_is_good - 2005-09-27

awsome tab! i love emery, does anyone know of a place where you can find beloved tabs (beloved is one one of those amazing bands like emery),cuz i really like thier music. thanks.


blindsidelova - 2005-12-06

Ok. There are some corrections you could make, but all in all, it is pretty good.


blindsidelova - 2005-12-07

Solo should be

Eb|------------------------------|
Bb|------------------------------|
Gb|------------------------------|
Db|--10--10/2--9--12-(3-3-3-3)-0-|
Ab|------------------(3-3-3-3)-0-|
Db|------------------(3-3-3-3)-0-|

This is what I think it should be. Could someone post what guitar 2 is doing during the verses while guitar 1 is letting the top strings ring open.
Thanks


thereddeath - 2006-01-10

You can get the bloodless tab once they approve it from me

Yep



blindsidelova - 2006-03-14

What about the picking during the verses? Why does nobody post those? I guess life goes on.


|)rink)v(tn|)ew - 2006-11-24

during the intro, theres more to it then just one chord...try these at the same time as the power chords.
first time...v
Eb|-----------------------------------------------------------
Bb|-66666--66-6666-66666--6666685555--5555555-55555--5555555-
Gb|-xxxxx--xx-xxxx-xxxxx--xxxxxxxxxx--xxxxxxx-55555--5555555-
Db|-33333--33-3333-33333--3333352222--2222222-33333--3333333-
Ab|-00000--00-0000-00000--00000000000--0000000-33333--3333333-
Db|-00000--00-0000-00000--00000000000--0000000-33333--3333333-
notice the slide from "5" to "2"v
Eb|----------------------------------------------------------
Bb|-66666--66-6666-66666--6666685555--5555555-5-5xx5--5555--
Gb|-xxxxx--xx-xxxx-xxxxx--xxxxxxxxxx--xxxxxxx-5-5xx5--5555--
Db|-33333--33-3333-33333--3333352222--2222222-3-3xx3--3333--
Ab|-00000--00-0000-00000--00000000000--0000000-3-3xx3--3333--
Db|-00000--00-0000-00000--00000000000--0000000-3-3xx3--3333--


riff in the verses...aaaaaand, I think its played during the intro too...not sure. just clean guitar here.

Eb|-----------------------------
Bb|----5----5----5----5---6p5---
Gb|--5----5----5----5---5----5--over and over, you figure out
Db|-----------------------------how many times to play it...lol
Ab|-----------------------------
Db|-----------------------------

I guess Ill just post it as a new song....?...? I know the lead stuff but itll take up a bunch of space and itll be hard to read.


|)rink)v(tn|)ew - 2006-11-24

hmm, for some reason it didnt show the slashes, but were it got messed up there, that is a slide from 5 down to 2.


|)rink)v(tn|)ew - 2006-11-24

oh uh...that part before the chorus is this,,,

during the intro, theres more to it then just one chord...try these at the same time as the power chords.
first time...v
Eb|----------------3-----3---
Bb|-53565-53565-535-5-535-5--
Gb|--------------------------
Db|--------------------------
Ab|--------------------------
Db|--------------------------


|)rink)v(tn|)ew - 2006-11-24

ok..lol....sorry, pay attention to the first sentence not the second sentence. (i wish you can edit corrections)


|)rink)v(tn|)ew - 2006-11-24

Eb|----------------3-----3---
Bb|-53565-53565-535-5-535-5--
Gb|--------------------------
Db|--------------------------
Ab|--------------------------
Db|--------------------------


|)rink)v(tn|)ew - 2006-11-24

and at the end...oh sit on this, im doing the song over. lol


tl_guitarnut - 2006-11-24

Nice man, it would be cool if you could submit it as a new song.


tl_guitarnut - 2006-11-24

Nice man, it would be cool if you could submit it as a new song.


tl_guitarnut - 2006-11-24

or Pm the song to me, but good job on what you have, it looks great.


Add a comment/correction

Complimentary Christian Ringtones
Dadamobile and CGR have teamed up to bring your favorite Christian artists right to your phone. Sign up today and get 10 complementary ringtones!
Tab Country
Did you know CGR has a sister site w/ country guitar tabs? Well we do! Its called Tab Country. It has a great archive with a lot of country tabs.
Rockin Tabs
Are you looking for a site that has rock guitar tabs? Then Rockintabs.com is the place for you. It is a budding site with many rock guitar tabs. Submit your tab today.
Tab Gallery
Tab Gallery has a compilation of christian, rock, and country tabs all in one place. Come visit us.