Guitar Tabs
song title    band name

Join Us Today!

Don't strum alone...
be a part of the largest online Christian music community. Browse thousands of guitar tabs and chat w/ musicians like yourself.


It's Free!

This tab has been rated a 4.67 out of 5 for accuracy. (3 votes)Sorry, but you must be logged in to rate this tab.
Click here to log-in, or you can click here to register.
(Registration is free)

All songs owned by corresponding publishing company. If you make copies of any song on this website, be sure to report your usage to CCLI.
Submitted by: Shaneathin86

Song:Stabbing Art to Death
Artist:Showbread
Album:No Sir, Nihilism is Not Practical
Tooth & Nail Records

Alright this is the longest song on the CD and probably has the most riffs, so 
i'm gonna tab it a little differently then i usually do, instead of trying to 
name any of these riffs then put them in order for ya, i'll probably just write
the time that they all occur at. Saves me the trouble of making up names haha.

Standard Tuning

[0:00]
e---------------------------------------------------------------------------
B---------------------------------------------------------------------------
G-88888----------5-7--------------------------------------------------------
D-88888-55555-77-5-7-7777-8888-555-222-5-2222-------------------------------
A-66666-55555-77-3-5-7777-8888-555-222-5-2222-------------------------------
E-------33333-55-----5555-6666-333-000-3-0000-(x2)----(x2)------------------

[O:45]
e---------------------------------------------------------------------------
B---------------------------------------------------------------------------
G---b5-3---3--------------888-777-555-5555----------------------------------
D-5------5---5--3-77-5-7--888-777-555-5555-8877-5-77--77-5-77---------------
A-5---------------77-5-7--666-555-333-3333-8877-5-77--77-5-77---------------
E-3---------------55-3-5-------------------6655-3-55--55-3-55---------------

[0:56]
e---------------------------------------------------------------------------
B---------------------------------------------------------------------------
G---888-777-555-5555--------------------------------------------------------
D---888-777-555-5555-8877-5-77--77-5-77-------------------------------------
A---666-555-333-3333-8877-5-77--77-5-77-------------------------------------
E--------------------6655-3-55--55-3-55-------------------------------------

[1:04]
e---------------------------------------------------------------------------
B---------------------------------------------------------------------------
G-8887------8887------8887--------------------------------------------------
D-8887------8887------8887-----88888777777----------------------------------
A-6665------6665------6665-----88888777777----------------------------------
E------------------------------66666555555-(x2)-----------------------------

[1:18]
e----------------------------------------------------------------------------
B----------------------------------------------------------------------------
G----------------------------------------------------------------------------
D------------------------------------88888-777777----------------------------
A------------------------------------88888-777777----------------------------
E-12\-00-3-00-3-00-5-0-6-0-5-0--(x3)-66666-555555----------------------------

[1:34]
e----------------------------------------------------------------------------
B----------------------------------------------------------------------------
G-------------------888-777-555-5555-----------------------------------------
D--88-8888--77-5-7--888-777-555-5555-8877-5-77--77-5-77----------------------
A--88-8888--77-5-7--666-555-333-3333-8877-5-77--77-5-77----------------------
E--66-6666--55-3-5-------------------6655-3-55--55-3-55----------------------

[1:53]
e----------------------------------------------------------------------------
B----------------------------------------------------------------------------
G-5-------------------5--------------------------5---------------------------
D-5----7-----3----5---5------7------3------5-----5------7------3------5------
A-3----7-----3----5---3(x32)-7------3------5-----3(x32)-7------3------5------
E------5-----1----3----------5(x32)-1(x32)-3(x32)-------5(x32)-1(x32)-3(x32)-
                      P.M........................
[3:01]
e----------------------------------------------------------------------------
B----------------------------------------------------------------------------
G-----5-7-8-7----------------------------------------------------------------
D-7-7-5-7-8-7-7-8---------7---7---7--8888------------------------------------
A-7-7-3-5-6-5-7-8---------7---7---7--8888------------------------------------
E-5-5---------5-6--(x8)---5---5---5--6666------------------------------------

[3:19] (rhythm nowhere near correct)
e----------------------------------------------------------------------------
G----------------------------------------------------------------------------
B-------44-55-77---------1212-1414-1515--------------------------------------
D-55-44-44-55-77-1010-99--X-X--X-X--X-X--------------------------------------
A-55-44-22-33-55-1010-99-1010-1212-1313--------------------------------------
E-33-22-----------8-8-77-----------------------------------------------------

[3:40]
e----------------------------------------------------------------------------
B----------------------------------------------------------------------------
G----------------------------------------------------------------------------
D-XX2--XX2--XX2-5-7-8-7------------------------------------------------------
A-XX2--XX2--XX2-5-7-8-7------------------------------------------------------
E-XX0--XX0--XX0-3-5-6-5-(x4)-------------------------------------------------

[4:02]
e----------------------------------------------------------------------------
B----------------------------------------------------------------------------
G----------------------------------------------------------------------------
D-22222222-55555555-7777-7875-2222-2b5bb-------------------------------------
A-22222222-55555555-7777-7875-2222-2b5bb-------------------------------------
E-00000000-33333333-5555-5653-0000-0b3bb-(x4)--------------------------------
  P.M...............................

[4:30]
e----------------------------------------------------------------------------
B----------------------------------------------------------------------------
G----------------------------------------------------------------------------
D-22-2-22-2-55-5-55-5-77-7-7875-22-2-2b5bb-----------------------------------
A-22-2-22-2-55-5-55-5-77-7-7875-22-2-2b5bb-----------------------------------
E-00-0-00-0-33-3-33-3-55-5-5653-00-0-0b3bb-(x2)------------------------------
 P.M.  ..   ..   ..   ..        ..

[4:45]
e----------------------------------------------------------------------------
B----------------------------------------------------------------------------
G----------------------------------------------------------------------------
D-22222222-55555555-7777-7875-2222-2b5bb-------------------------------------
A-22222222-55555555-7777-7875-2222-2b5bb-------------------------------------
E-00000000-33333333-5555-5653-0000-0b3bb-(x6)--------------------------------

[4:59]
e----------------------------------------------------------------------------
B----------------------------------------------------------------------------
G-------------------------------------88-10-88-b10-8-------------------------
D-b7bb----------------77-10-77-10-7-10---------------10-7--------------------
A-----77-10-77-10-7-10-------------------------------------------------------
E----------------------------------------------------------------------------

[5:06]
e----------------------------------------------------------------------------
B----------------------------------------------------------------------------
G-------------------------------------77-9-7-9-10-12-b14-12----11--15--------
D-b7bb----------------77-10-77-10-7-10----------------------14---------------
A-----77-10-77-10-7-10-------------------------------------------------------
E----------------------------------------------------------------------------

[5:14]
e----------------------------------------------------------------------------
B----------------------------------------------------------------------------
G-15b151515-15b151515-15b151515-15b151515-151515-15-14-12-----------12-14----
D--------------------------------------------------------14-14-14-14---------
A----------------------------------------------------------------------------
E----------------------------------------------------------------------------

[5:19]
e----------------------------------------------------------------------------
B----------------------------------------------------------------------------
G-151412-151412-151412-151412-15b151515-15b151515-15b151515-15b151515--------
D----------------------------------------------------------------------------
A----------------------------------------------------------------------------
E----------------------------------------------------------------------------

[5:24]
e----------------------------------------------------------------------------
B--171717-20-19-17-20-19-17-15-12--------------------------------------------
G---------------------------------14-12-14-12-14-15-14-12-9------------------
D----------------------------------------------------------------------------
A----------------------------------------------------------------------------
E----------------------------------------------------------------------------

[5:33]
e----------------------------------------------------------------------------
B----------------------------------------------------------------------------
G----------------------------------------------------------------------------
D-5b55-2-----5b55-2-----5b55-2-----5b55-2------------------------------------
A-5b55-2-----5b55-2-----5b55-2-----5b55-2------------------------------------
E-3b33-0-----3b33-0-----3b33-0-----3b33-0------------------------------------

Wow,that took a long time... hope everyone enjoys this. I'm not really a solo 
guy, i'm more rhythm so the solo is pretty rough, but thats what i came up with
have fun, and rock out. Questions, Comments, Editorials, and other nonsense to 
Shaneathin86@Hotmail.com

                                                        -Shaner

Comments about this tab

No comments/corrections found. Add your own

Complimentary Christian Ringtones
Dadamobile and CGR have teamed up to bring your favorite Christian artists right to your phone. Sign up today and get 10 complementary ringtones!
Tab Country
Did you know CGR has a sister site w/ country guitar tabs? Well we do! Its called Tab Country. It has a great archive with a lot of country tabs.
Rockin Tabs
Are you looking for a site that has rock guitar tabs? Then Rockintabs.com is the place for you. It is a budding site with many rock guitar tabs. Submit your tab today.
Tab Gallery
Tab Gallery has a compilation of christian, rock, and country tabs all in one place. Come visit us.