Guitar Tabs
song title    band name

Join Us Today!

Don't strum alone...
be a part of the largest online Christian music community. Browse thousands of guitar tabs and chat w/ musicians like yourself.


It's Free!

This tab has been rated a 3.33 out of 5 for accuracy. (3 votes)Sorry, but you must be logged in to rate this tab.
Click here to log-in, or you can click here to register.
(Registration is free)

All songs owned by corresponding publishing company. If you make copies of any song on this website, be sure to report your usage to CCLI.
Submitted by: xJonathanxLee

Wonderful Cross
Matt Redman/ Chris Tomlin
tabbed by xjonathanxlee

e|----------------------------------------------------------------
B|----------------------------------------------------------------
G|----------------------------------------------------------------
D|----------------------------------------------------------------
A|-----0-1/2-0-2-3-2-0-2--2-2-3-3-2-0--------------0-2-0-2-3-2-0-2
E|--3-3------------------------------3-2-3-5----3-3---------------

e|----------------------------------------------------------------
B|----------------------------------------------------------------
G|----------------------------------------------------------------
D|----------------------------------------------------------------
A|2-2-2-0---0-2-0-------------------------------------------------
E|--------3------3------------------------------------------------

Well thats about it. It's the Verse and The Intro. Listen to the song in order to find the tempo. 
God Bless


Comments about this tab

tabber_1314 - 2006-04-05

Sounds basically accurate except for the last line when you pick the A string on second fret 3 times, that didn't sound good, but other than that good job. Keep up the good work.


tabber_1314 - 2006-04-06

OK, I was just playing this song today, it sounds perfect 'cept what I said above, but I think it sounds better if it's played one string lower, same frets and all just play it one string down, that's what I think, I might be wrong but I like it. Let me know what you think.


Add a comment/correction

Complimentary Christian Ringtones
Dadamobile and CGR have teamed up to bring your favorite Christian artists right to your phone. Sign up today and get 10 complementary ringtones!
Tab Country
Did you know CGR has a sister site w/ country guitar tabs? Well we do! Its called Tab Country. It has a great archive with a lot of country tabs.
Rockin Tabs
Are you looking for a site that has rock guitar tabs? Then Rockintabs.com is the place for you. It is a budding site with many rock guitar tabs. Submit your tab today.
Tab Gallery
Tab Gallery has a compilation of christian, rock, and country tabs all in one place. Come visit us.