Guitar Tabs
song title    band name

Join Us Today!

Don't strum alone...
be a part of the largest online Christian music community. Browse thousands of guitar tabs and chat w/ musicians like yourself.


It's Free!

This tab has been rated a 4.60 out of 5 for accuracy. (5 votes)Sorry, but you must be logged in to rate this tab.
Click here to log-in, or you can click here to register.
(Registration is free)

All songs owned by corresponding publishing company. If you make copies of any song on this website, be sure to report your usage to CCLI.
Submitted by: madrobotichippo

Forward Motion

by Relient K

Guitar 1 - standard tuning
Guitar 2 - standard tuning

Ok, I couldn't find a tab that all the parts tabbed out 
properly, so I did it myself. I think it's right, 
neways make sure you rate it, and have fun!

Intro: 

Gtr.1 - d string palm muted
|-------------------------|-------------------------|
|-------------------------|-------------------------|
|------6---8---6---8---6--|------6---5---6---5---6--|
|--8-8---8---8---8---8----|--6-6---6---6---6---6----|
|-------------------------|-------------------------|
|-------------------------|-------------------------|

|-----------------------------|--------------------------------|
|-----------------------------|--------------------------------|
|--------8---10---8---10---8--|--------10---13---10---11---10--|  
|--11-11--11---11---11---11---|--11-11---11---11---11---11-----|
|-----------------------------|--------------------------------|
|-----------------------------|--------------------------------|
Repeat whole section 3x

Gtr.2 - comes in on x2 of gtr.1
|--------|--------|--------|         |------------|
|--------|--------|--------|         |------------|
|--------|--------|--------|         |------------|
|--------|--------|---8~---| x2 then |------------|
|---8~---|---6~---|---6~---|         |--44444444--| 
|---6~---|---4~---|--------|         |--22222222--|

Verse: 

Both guitars - play as staccato
|-----------------|-----------------|-----------------|-----------------|
|-----------------|-----------------|-----------------|-----------------|
|-----------------|-----------------|-----------------|-----------------|
|-6-6-6-6-6-6-6-6-|-----------------|-----------------|-----------------| x2
|-4-4-4-4-4-4-4-4-|-6-6-6-6-6-6-6-6-|-8-8-8-8-8-8-8-8-|-4-4-4-4-4-4-4-4-|
|-----------------|-4-4-4-4-4-4-4-4-|-6-6-6-6-6-6-6-6-|-2-2-2-2-2-2-2-2-|

Pre Chorus 1: 

Gtr.1 - palm muted after x4
|---------------------------|
|---------------------------|
|-----10----13----10----10--| 
|--11----11----11----11-----| x8
|---------------------------|
|---------------------------|

Gtr.2 - palm muted on x2
|----------|----------|----------|---------|
|----------|----------|----------|---------|
|----------|----------|----------|---------|
|-66666666-|----------|----------|---------| x2
|-44444444-|-66666666-|-88888888-|-4444444-|
|----------|-44444444-|-66666666-|-2222222-|

Pre Chorus 2:

Both guitars
|----------|----------|----------|----------|         |----------|
|----------|----------|----------|----------|         |----------|
|----------|----------|----------|----------|         |----------|
|----------|----------|-88888888-|-88888888-| x2 then |----------|
|-88888888-|-66666666-|-66666666-|-66666666-|     p.m |-44444444-|
|-66666666-|-44444444-|----------|----------|         |-22222222-|

|----------|----------|----------|----------|
|----------|----------|----------|----------|
|----------|----------|----------|----------|
|-66666666-|-66666666-|----------|----------| x2
|-44444444-|-33333333-|-44444444-|-44444444-|
|----------|----------|-22222222-|-22222222-|

Chorus: 

Gtr.1
|---------|---------|---------|---------|
|------6--|------6--|------6--|------7--|
|----6----|----6----|----6----|----6----| 
|---------|---------|---------|--4------| x2
|--4------|---------|---------|---------|
|---------|--4------|--6------|---------|

|---------------|--------------|--------------|--------------|
|------6--7-6---|------6--7-6--|------6--7-6--|------7--6-7--|
|----6----------|----6---------|----6---------|----6---------|
|---------------|--------------|--------------|--4-----------|
|--4------------|--------------|--------------|--------------|
|---------------|--4-----------|--6-----------|--------------|

|---------------|--------------|--------------|-------------------|
|------6--7-6---|------6--7-6--|------6--7-6--|-------------------|
|----6----------|----6---------|----6---------|--66-55-66-55-6-8--|
|---------------|--------------|--------------|--44-44-44-44-4-6--|
|--4------------|--------------|--------------|-------------------|
|---------------|--4-----------|--6-----------|-------------------|

Gtr.2 - p.m. and comes on x3 of gtr.1
|----------|----------|----------|---------|
|----------|----------|----------|---------|
|----------|----------|----------|---------|
|-66666666-|----------|----------|---------| 
|-44444444-|-66666666-|-88888888-|-4444444-|
|----------|-44444444-|-66666666-|-2222222-|

|----------|----------|----------|
|----------|----------|----------|
|----------|----------|----------|
|-66666666-|----------|----------| 
|-44444444-|-66666666-|-88888888-|
|----------|-44444444-|-66666666-|

p.m ends here and play this
|-----------------|
|-----------------|
|-----------------|
|-----------------|
|-44-44-44-44-4-6-|
|-22-22-22-22-2-4-|

Verse:

Both guitars - play as staccato
|-----------------|-----------------|-----------------|-----------------|
|-----------------|-----------------|-----------------|-----------------|
|-----------------|-----------------|-----------------|-----------------|
|-6-6-6-6-6-6-6-6-|-----------------|-----------------|-----------------| 
|-4-4-4-4-4-4-4-4-|-6-6-6-6-6-6-6-6-|-8-8-8-8-8-8-8-8-|-4-4-4-4-4-4-4-4-|
|-----------------|-4-4-4-4-4-4-4-4-|-6-6-6-6-6-6-6-6-|-2-2-2-2-2-2-2-2-|

|----------------------|-----------------|-----------------|
|----------------------|-----------------|-----------------|
|-x11\-----------------|-----------------|-----------------|
|-xx---6-6-6-6-6-6-6-6-|-----------------|-----------------|
|-x9\--4-4-4-4-4-4-4-4-|-6-6-6-6-6-6-6-6-|-8-8-8-8-8-8-8-8-|
|----------------------|-4-4-4-4-4-4-4-4-|-6-6-6-6-6-6-6-6-|

|-----------------|
|-----------------|
|-----------------|
|-----------------|
|-4-4-4-4-4-4-4-4-|
|-2-2-2-2-2-2-2-2-|

Pre Chorus 1:

Pre Chorus 2:

Chorus:

Then they play the chorus again which is 
different,I have labeled it as chorus2

Chorus 2:

Gtr.1 - if u listen closly u
can hear gtr.1 playing this
|----------|----------|----------|----------|
|----------|----------|----------|----------|
|-66666666-|-66666666-|-66666666-|-66666666-|
|-xxxxxxxx-|-xxxxxxxx-|-xxxxxxxx-|-xxxxxxxx-| x3
|-44444444-|-44444444-|-44444444-|-44444444-|
|----------|----------|----------|----------|

|----------|----------|----------|----------|
|----------|----------|----------|----------|
|-66666666-|-66666666-|----------|----------|
|-xxxxxxxx-|-xxxxxxxx-|----------|----------| 
|-44444444-|-44444444-|-88888888-|-44444444-|
|----------|----------|-66666666-|-22222222-|

|-----------------|-----------------|----|
|-----------------|-----------------|----|
|-66-55-66-55-6-8-|-66-55-66-55-6-8-|----|
|-44-44-44-44-4-6-|-44-44-44-44-4-6-|-6~-|
|-----------------|-----------------|-4~-|
|-----------------|-----------------|----|

Gtr.2
|----------|----------|----------|---------|
|----------|----------|----------|---------|
|----------|----------|----------|---------|
|-66666666-|----------|----------|---------| x4
|-44444444-|-66666666-|-88888888-|-4444444-|
|----------|-44444444-|-66666666-|-2222222-|

|-----------------|-----------------|----|
|-----------------|-----------------|----|
|-----------------|-----------------|----|
|-----------------|-----------------|-6~-|
|-44-44-44-44-4-6-|-44-44-44-44-4-6-|-4~-|
|-22-22-22-22-2-4-|-22-22-22-22-2-4-|----|

The end!

God bless - mike.

Comments about this tab

skid - 2005-04-28

Hey there is an easier way to play the intro here it is:
e-------------------------------------------------
b---2-4-2-4-2---1-2-1-2-1---4-6-4-6-4---6-9-6-9-6-
g-33-3-3-3-3--11-1-1-1-1--55-5-5-5-5--66-6-6-6-6--


skid - 2005-05-07

sry got my 1's & 2's mixed up on the 2nd part it should be
e----------
B---2-1-2-1
G-11-1-1-1-


baseball389010 - 2005-06-26

theres an even easier way to play the first part.....just use the last three strings.....G, B, and E....like this...

e---3-----3-----2----2----0----0----2----2----3-
b--3-3---3-3---3-3--3-3--3-3--3-3--3-3--3-3--3-3
g-0-----0-----0----0----0----0----0----0----0--- run it together though
d----------------------------------------------- when you get to the end just
a----------------------------------------------- start over again
e-----------------------------------------------

overall.....very well tabbed!! God Bless


baseball389010 - 2005-07-11

you know what......absolutely ignore what i just commented....im thinking of a totally different song.....sorry man....your tab is perfectly fine.


schecterpunk127 - 2006-04-19

that's exacly how i play it! nice job!


Add a comment/correction

Complimentary Christian Ringtones
Dadamobile and CGR have teamed up to bring your favorite Christian artists right to your phone. Sign up today and get 10 complementary ringtones!
Tab Country
Did you know CGR has a sister site w/ country guitar tabs? Well we do! Its called Tab Country. It has a great archive with a lot of country tabs.
Rockin Tabs
Are you looking for a site that has rock guitar tabs? Then Rockintabs.com is the place for you. It is a budding site with many rock guitar tabs. Submit your tab today.
Tab Gallery
Tab Gallery has a compilation of christian, rock, and country tabs all in one place. Come visit us.