Guitar Tabs
song title    band name

Join Us Today!

Don't strum alone...
be a part of the largest online Christian music community. Browse thousands of guitar tabs and chat w/ musicians like yourself.


It's Free!

This tab has been rated a 4.46 out of 5 for accuracy. (13 votes)Sorry, but you must be logged in to rate this tab.
Click here to log-in, or you can click here to register.
(Registration is free)

All songs owned by corresponding publishing company. If you make copies of any song on this website, be sure to report your usage to CCLI.
Submitted by: Timberwolf

Song:High of 75
Written by:Relient K
CD:MMHMM
Tuning:EbAbDbGbBbEb
Tabbed by:Nathan N.

Intro1 (acou.)
-----------------------------------------------------------------------------
-----------------------------------------------------------------------------
-----------------------------------------------------------------------------
3-3-333-2-22-2222-3-3-333-2-22-2222-3-3-333-2-22-2222-3-3-333-2-22-2222------
3-3-333-3-33-3333-3-3-333-3-33-3333-3-3-333-3-33-3333-3-3-333-3-33-3333------
------------------------------------1-1-111-1-11-1111-1-1-111-1-11-1111------
GT2 in ( ) GT2 w/delay
-----------------------------------------------------------------------------
----------------------------------(6)----------------------------------------
----------------------------------(5)----------------------------------------
7-7-777-6-66-6666-5-5-555-4-444444-3-----------------------------------------
7-7-777-7-77-7777-5-5-555-5-555555-3-----------------------------------------
5-5-555-5-55-5555-3-3-333-3-333333-1-----------------------------------------
Intro2 GT1 dist.
------------------------------------------------------------------------------
6-6-666-5-55-5555-8-8-888-5-55-5555-6-6-666-5-55-5555-8-8-888-5-55-5555-------
5-5-555-5-55-5555-5-5-555-5-55-5555-5-5-555-5-55-5555-5-5-555-5-55-5555-------
------------------------------------------------------------------------------
------------------------------------------------------------------------------
------------------------------------------------------------------------------
GT2 dist.
------------------------------------------------------------------------------
------------------------------------------------------------------------------
555555555555555555555555555555555555------------------------------------------
555555555555555555555555555555555555-3333333333333333333333333333333333-------
333333333333333333333333333333333333-3333333333333333333333333333333333-------
-------------------------------------1111111111111111111111111111111111-------
GT1 cont.
-------------------------------------------------------------------------
6-6-666-5-55-5555-8-8-888-5-55-5555-6-6-666-5-55-5555-8-8-888-5-55-5555--
5-5-555-5-55-5555-5-5-555-5-55-5555-5-5-555-5-55-5555-5-5-555-5-55-5555--
-------------------------------------------------------------------------
-------------------------------------------------------------------------
-------------------------------------------------------------------------
GT2 cont.
-------------------------------------------------------------------------
-------------------------------------------------------------------------
-------------------------------------------------------------------------
77777777777777777-555555555555555555-33333333333333333333333333333333333-
77777777777777777-555555555555555555-33333333333333333333333333333333333-
55555555555555555-333333333333333333-11111111111111111111111111111111111-
Verse GT1 only plays intro2 clean then this w/delay
---------------------------------------------------
6-5-6-5--------------------------------------------
5-5-5-5--------------------------------------------
---------------------------------------------------
---------------------------------------------------
---------------------------------------------------
Then
------------------------------------------------------------------------------
------------------------------------------------------------------------------
---------55-------------------------------------------------------------------
55555555-55-5555555555555555----------33-----------------/7-7-7-777-7-77-7777-
33333333-33-3333333333333333-33333333-33-3333333333333333/7-7-7-777-7-77-7777-
-----------------------------11111111-11-1111111111111111/5-5-5-555-5-55-5555-
PM======    =========================    ================
------------------------------------------------------------------
------------------------------------------------------------------
------------------------------------------------------------------
5-5-555-5-55-5555-3-3-333-2-22-2222-3-3-333-2-22-2222-------------
5-5-555-5-55-5555-3-3-333-3-33-3333-3-3-333-3-33-3333-------------
3-3-333-3-33-3333-1-1-111-1-11-1111-1-1-111-1-11-1111-------------
GT2 in ( ) w/delay
----------------------------------------------------------------------------
--------------------------------------------(6)--(6)--(6)--(6)--------------
--------------------------------------------(5)--(5)--(5)--(5)--------------
33-55-22-3--------------------33-55-22-33333--------------------------------
33-55-22-3-3333-5555-2222-333-33-55-22-33333-3333-5555-2222-3333------------
11-33-00-1-1111-3333-0000-111-11-33-00-11111-1111-3333-0000-1111------------
PM         ==================                ===================
Interlude GT1 plays intro2 GT2 plays this listen to song for timing.
------------------------------------
------------------------------------
5------7----------------------------
5------7---3------------------------
3------5---3------------------------
-----------1------------------------
Then intro2 both GT's
Then
-----------------------------------------------------------------
-----------------------------------------------------------------
-----------------------------------------------------------------
------2-3--------------------33-55-22-33333----------------------
33-55-2-3-3333-5555-2222-333-33-55-22-33333-3333-5555-2222-3333--
11-33-0-1-1111-3333-0000-111-11-33-00-11111-1111-3333-0000-1111--
PM===     ==================                ===================
Then play intro2 till end. You should add this because it's very accurate
I tabbed it with my Tascam CD Guitar Trainer and it slows songs down by 50%. 

Comments about this tab

kelly32694 - 2005-09-02

WHAT DOES IT ALL MEAN?! TOO MANY NUMBERS FOR THIS FEEBLE MIND!!! Got it, that's very accurate!!! I liked playing it w/ the cd!


gnarlynarwhal1 - 2005-11-09

way to super hard for me, but the intro sounds pretty good... sweet sweet sweet


simmonds - 2006-05-02

sorry dude the intro isn't right tune down half a step
e------------------------------------------------------
B------------------------------------------------------
G-0-0-000-0-0-0000-0-0-000-0-0-0000-0-0-0000-0-0-000-0~
D-3-3-333-2-2-2222-3-3-333-2-2-2222-3-3-3333-2-2-222-3~
A-3-3-333-3-3-3333-3-3-333-3-3-3333-3-3-3333-3-3-333-3~
E------------------------------------------------------
The second time Guitar 2 is doing...
e------------------------------------------------------
B------------------------------------------------------
G------------------------------------------------------
D-8-8-888-6-6-6666-3~----------------------------------
A-8-8-888-6-6-6666-3~----------------------------------
E-6-6-666-3-3-3333-1~----------------------------------
This was my first time tabbing anything correct me!


relient_k304 - 2006-05-22

intro's pretty good--still lost. im waiting for someone to put a tab for who i am hates who ive been that ACTUALLY MAKES SENSE!


StellarFreak - 2008-01-23

great tab but cant make sense of where the different parts of the song is.


orange N pink - 2008-09-08

Cool tab. It got me on the right track but I think the intro goes more like this.
e------------------------------------------------------------------------
B------------------------------------------------------------------------
G------------------------------------------------------------------------
D-2-2-222-1-11-1111-2-2-222-1-11-1111-2-2-222-1-11-1111-2-2-222-1-11-1111
A-2-2-222-2-22-2222-2-2-222-2-22-2222-2-2-222-2-22-2222-2-2-222-2-22-2222
E-------------------------------------0-----------------0----------------

e--------------------------------------
B-------------------------------------- G-------------------------------------- D-2-2-222-1-11-1111-2-2-222-1-11-1111-2
A-2-2-222-2-22-2222 2-2-222-2-22-2222-2
E-4-----------------2-----------------0
Hope this helps.


orange N pink - 2008-09-08

Oops the tab got messed up.
Sorry.


orange N pink - 2008-09-08

The Sruming patten (exept for the end which is one strum)is.

0-0-000-0-00-0000
And the notes are
e
B
G
D-2-1-2-1-2-1-2-1-2-1-2-1-2
A-2-2-2-2-2-2-2-2-2-2-2-2-2
E---------0---0---4---2---0


Add a comment/correction

Complimentary Christian Ringtones
Dadamobile and CGR have teamed up to bring your favorite Christian artists right to your phone. Sign up today and get 10 complementary ringtones!
Tab Country
Did you know CGR has a sister site w/ country guitar tabs? Well we do! Its called Tab Country. It has a great archive with a lot of country tabs.
Rockin Tabs
Are you looking for a site that has rock guitar tabs? Then Rockintabs.com is the place for you. It is a budding site with many rock guitar tabs. Submit your tab today.
Tab Gallery
Tab Gallery has a compilation of christian, rock, and country tabs all in one place. Come visit us.