Guitar Tabs
song title    band name

Join Us Today!

Don't strum alone...
be a part of the largest online Christian music community. Browse thousands of guitar tabs and chat w/ musicians like yourself.


It's Free!

This tab has been rated a 4.33 out of 5 for accuracy. (3 votes)Sorry, but you must be logged in to rate this tab.
Click here to log-in, or you can click here to register.
(Registration is free)

All songs owned by corresponding publishing company. If you make copies of any song on this website, be sure to report your usage to CCLI.
Submitted by: Teocyn

Dancing Generation
Matt Redmon

This is how I play the solo at our Church!
                                          
E||--------------------------------------|
B||--------------------------------------|
G||--7-7-7-7-7-7-7-7-7-7-7-7-11-11-11-11-|
D||--------------------------------------|
A||--5-5-5-5-5-5-5-5-5-5-5-5-9--9--9--9--|
E||--------------------------------------|
                                     
------------------------------------------|
------------------------------------------|
--9-9-9-9-9-9-9-9-11-11-11-11-12-12-12-12-|
------------------------------------------|
--7-7-7-7-7-7-7-7-9--9--9--9--10-10-10-10-|
------------------------------------------|
                                       
--------------------------------------------------|
--------------------------------------------------|
--16-16-16-16-16-16-16-16-18-18-18-18-19-19-19-19-|
--------------------------------------------------|
--14-14-14-14-14-14-14-14-16-16-16-16-17-17-17-17-|
--------------------------------------------------|
                         
------------------------------------------|
------------------------------------------|
--11-11-11-11-11-11-11-11-9-9-9-9-9-9-9-9-|
------------------------------------------|
--9--9--9--9--9--9--9--9--7-7-7-7-7-7-7-7-|
------------------------------------------|
                                      
--------------------------------------|
--------------------------------------|
--7-7-7-7-7-7-7-7-7-7-7-7-11-11-11-11-|
--------------------------------------|
--5-5-5-5-5-5-5-5-5-5-5-5-9--9--9--9--|
--------------------------------------|
                                                
--------------------------------------------------|
--------------------------------------------------|
--14-14-14-14-14-14-14-14-14-14/11-11/14-14-14-14-|
--------------------------------------------------|
--12-12-12-12-12-12-12-12-12-12/9--9/-12-12-12-12-|
--------------------------------------------------|
                                                   
--------------------------------------------------|
--------------------------------------------------|
--16-16-16-16-16-16-16-16-18-18-18-18-19-19-19-19-|
--------------------------------------------------|
--14-14-14-14-14-14-14-14-16-16-16-16-17-17-17-17-|
--------------------------------------------------|
                                            
------------------------------------------||
------------------------------------------||
--11-11-11-11-11-11-11-11-9-9-9-9-9-9-9-9-||
----------------------------------x-------||
--9--9--9--9--9--9--9--9--7-7-7-7-7-7-7-7-||
------------------------------------------||

It might not be completely accurate, but hope it gives you an idea!

God Bless

Comments about this tab

pntbalnfreak - 2007-03-12

Hey,
nice job with the notes, but im new to the guitar and i don't know what the x's and the /'s mean.
could someone please tell me?


tmt7 - 2007-12-22

Hey,
nice job with the notes, but im new to the guitar and i don't know what the x's and the /'s mean.
could someone please tell me?

THe tab means the guitar strings, the numbers are the frets wich you have to play
e-------
B-------
G-------
D-------
A-------
E-------

The X at tab means that you have to mute the string(the string mustn't sound)
I hope have helped you!
GOD BLESS!


tmt7 - 2007-12-22

THE / means that you have to slide the note, you play the note and move the chord to the other position.

for example "e--1/5-----": "/" means play e--1-- and quickly SLIDE your finger to e--5--. YOU PLAY AND SLIDE TO THE CHORD/NOTE INDICATED


dandaman - 2008-08-09

this is what i usually play... slides on the G -

DDDDD F#EEE F#GG sBBB F#EEE
DDDDD F#EEE F#GG sBBB C#DDD(hi)

Put a load of Chorus and Overdrive and it makes it sound like you're playing the full chords


Add a comment/correction

Complimentary Christian Ringtones
Dadamobile and CGR have teamed up to bring your favorite Christian artists right to your phone. Sign up today and get 10 complementary ringtones!
Tab Country
Did you know CGR has a sister site w/ country guitar tabs? Well we do! Its called Tab Country. It has a great archive with a lot of country tabs.
Rockin Tabs
Are you looking for a site that has rock guitar tabs? Then Rockintabs.com is the place for you. It is a budding site with many rock guitar tabs. Submit your tab today.
Tab Gallery
Tab Gallery has a compilation of christian, rock, and country tabs all in one place. Come visit us.