Guitar Tabs
song title    band name

Join Us Today!

Don't strum alone...
be a part of the largest online Christian music community. Browse thousands of guitar tabs and chat w/ musicians like yourself.


It's Free!

This tab has been rated a 4.25 out of 5 for accuracy. (12 votes)Sorry, but you must be logged in to rate this tab.
Click here to log-in, or you can click here to register.
(Registration is free)

All songs owned by corresponding publishing company. If you make copies of any song on this website, be sure to report your usage to CCLI.
Submitted by: imafatkidtoo

Ok I've never seen a correct version of this tab 
on the internet so I'm just gonna put it up.

This song is played in drop-d but it sounds a 
half step higher so you can either capo it or 
just tune up (looks much better).

Intro:

E ---------------------------------         on the 4th time   E ----
B ---------------------------------         add an extra one  B ----
G -7--7/5/10--10/5/7--7/5/10-------         of these:         G ----
D -x--x-x-x---x--x-x--x-x-x--0-3p0-   x4                      D -0--
A -5--5/3/8---8-/3/5--5/3-8--0-3p0-                           A -0--
D ---------------------------0-3p0-                           D -0--

Verse:

E ---------------------------------         on the 8th time   E -------
B -----------------6-6-6-5-5-5-5-5-         end on the 1st    B -------
G -5-7-7-7-7-7-7-7-----------------         time you go to    G -------
D ---------------------------------   x8    5 on the b        D -0-3p0-
A ---------------------------------         string and throw  A -0-3p0-
D ---------------------------------         in one of these:  D -0-3p0-

Chorus:

E ---------------------------------         on the 4th time   E ----
B ---------------------------------         add an extra one  B ----
G -7--7/5/10--10/5/7--7/5/10-------         of these:         G ----
D -x--x-x-x---x--x-x--x-x-x--0-3p0-   x4                      D -0--
A -5--5/3/8---8-/3/5--5/3-8--0-3p0-                           A -0--
D ---------------------------0-3p0-                           D -0--

Verse:

E ---------------------------------         on the 8th time   E -------
B -----------------6-6-6-5-5-5-5-5-         end on the 1st    B -------
G -5-7-7-7-7-7-7-7-----------------         time you go to    G -------
D ---------------------------------   x8    5 on the b        D -0-3p0-
A ---------------------------------         string and throw  A -0-3p0-
D ---------------------------------         in one of these:  D -0-3p0-

Chorus:

E ---------------------------------
B ---------------------------------
G -7--7/5/10--10/5/7--7/5/10-------
D -x--x-x-x---x--x-x--x-x-x--0-3p0-   x4
A -5--5/3/8---8-/3/5--5/3-8--0-3p0-
D ---------------------------0-3p0-

Bridge:

E -------------------------------------------------------------
B -------------------------------------------------------------
G -7--7-7-7-7-7-7-9--9-9-9-9-9-9-------------------------------
D -x--x-x-x-x-x-x-x--x-x-x-x-x-x--8--8-8-8-8-8-8/7-7-7-7-7-7-7-   x2
A -5--5-5-5-5-5-5-7--7-7-7-7-7-7--6--6-6-6-6-6-6/5-5-5-5-5-5-5-
D --------------------------------6--6-6-6-6-6-6/5-5-5-5-5-5-5-

E -----------------        E -------------12------        E -------
B -----------------        B ----------10----10---        B -------
G -10-10/9-14-14/9-        G 10/9-10/9----------9-        G -------
D -----------------   x4   D ---------------------   x4   D -0-3p0-
A -----------------        A ---------------------        A -0-3p0-
D -----------------        D ---------------------        D -0-3p0-

Chorus:

E ---------------------------------         on the 8th time   E ----
B ---------------------------------         add an extra one  B ----
G -7--7/5/10--10/5/7--7/5/10-------         of these:         G ----
D -x--x-x-x---x--x-x--x-x-x--0-3p0-   x8                      D -0--
A -5--5/3/8---8-/3/5--5/3-8--0-3p0-                           A -0--
D ---------------------------0-3p0-                           D -0--

Outro:

E ------------------0-----
B -10~^~10-9--0-1-0---0---
G ----------------------2-
D ------------------------
A ------------------------
D ------------------------

I have way too much free time.

Comments about this tab

imafatkidtoo - 2005-03-02

on the bridge when you go from

E ----
B ----
G -7--
D -x--
A -5--
D ----

to

E ----
B ----
G -9--
D -x--
A -7--
D ----

you should slide


njsk8rboy - 2005-03-18

I know what ure talking about when u say i have way too much free time and good tab


tennisguy224 - 2005-04-13

the uuuh

G-8
D-6
A-6

and the

G-7
D-5
A-5

they don't sound right...maybe it's just me...


tennisguy224 - 2005-04-13

sorry meant the

D-8
A-6
D-6

and

D-7
A-5
D-5


imafatkidtoo - 2005-05-10

I'll admit that they don't sound perfect but nothing else I've tried seems to fit as well


sXcountry - 2005-06-09

on the bridge, try:
D-11 D-10
A-x A-x
D-9 and D-8
instead of:
D-8 D-7
A-6 and A-5
D-6 D-5

great tab though!


sXcountry - 2005-06-09

sorry,
D-11
A-X
D-9

and

D-10
A-X
D-7

instead of

D-8
A-6
D-6

and

D-7
A-5
D-5


DoulosXristou - 2005-07-23

One more note. . .

The guitar line for the verse is written half a step lower than is played.

It should be. . .

|----------------7-7-7-6-6-6-6-6-|
|6-8-8-8-8-8-8-8-----------------|


DoulosXristou - 2005-07-23

Incidentally, the single note lines in the bridge are also written a half-step low.

They should be. . .

E|----------13--|
B|7\6-7\6/11--11|

I put it on the B and E strings because I like to have each dash or character space as 1/16 notes. . .so in this one, the slide after the first seven shows that the seven is an eighth note. All notes in this section are 1/8 notes except for the final 11.

Of course now I realize that's not true. I guess all are 16th notes, but it would just be too sloppy to write it like that. If you listen to the song, you'll know what to do.


imafatkidtoo - 2005-12-22

Ok this is for DoulosXristou. If you look at the top you'll notice that i said the entire tab is a half step off.

One more little correction tought that just sounds a little more likt the album: the first
E -
B -
G 7
D x
A 5
D -
in the chorus should be
E -
B -
G -
D -
A -
D 0


akaukal - 2006-05-04

I dunno....I play this song totally different in drop C# and it sounds way better. I'll probably try submitting a new tab for this song.


Dani_Boy - 2006-05-05

This tab is one half step to dark-pitched. Try playing this tab along with the song. It just doesn't work, sorry.


Robin238 - 2006-07-24

Drop C# is way betteron this song


guitar_chik06 - 2006-11-04

The tuning for this tap should be dropped D#, not just dropped D.


|)rink)v(tn|)ew - 2006-11-07

I Agree


Add a comment/correction

Complimentary Christian Ringtones
Dadamobile and CGR have teamed up to bring your favorite Christian artists right to your phone. Sign up today and get 10 complementary ringtones!
Tab Country
Did you know CGR has a sister site w/ country guitar tabs? Well we do! Its called Tab Country. It has a great archive with a lot of country tabs.
Rockin Tabs
Are you looking for a site that has rock guitar tabs? Then Rockintabs.com is the place for you. It is a budding site with many rock guitar tabs. Submit your tab today.
Tab Gallery
Tab Gallery has a compilation of christian, rock, and country tabs all in one place. Come visit us.