Guitar Tabs
song title    band name

Join Us Today!

Don't strum alone...
be a part of the largest online Christian music community. Browse thousands of guitar tabs and chat w/ musicians like yourself.


It's Free!

This tab has been rated a 4.00 out of 5 for accuracy. (4 votes)Sorry, but you must be logged in to rate this tab.
Click here to log-in, or you can click here to register.
(Registration is free)

All songs owned by corresponding publishing company. If you make copies of any song on this website, be sure to report your usage to CCLI.
Submitted by: Softer2me

Artist: Shawn McDonald
Song: Beautiful
Album: Simply Nothing c 2004
Tabbed by : Softer_2_me@hotmail.com

Standard Tuning Capo 4

Intro/Verse: take out the first (h2) for the verse
                                         
e -------------------------------------------------------
b ----------1------------------------------1-------------
g ----------0-------0----------0-----------0-------------
d -------2-------2----------2---------0h2----------------
a ----3---------------3-----------2----------------------
E -------------------------------------------------------

e -------------------------------------------------------
b ----------1--------------------------------------------
g ----------0-------0----------0----------0--------------
d -------2-------2----------2----------0-----------------
a ----0---------------0-----------0h2--------------------
E -------------------------------------------------------


Chorus: I don't have time to write out the whole
chorus but I'll give you the chords and in the right order.
 
   Fsus2   G      Am    C
e -----------------------------|
b ---------0------1------1-----|
g --0------0------2------0-----|
d --3------5------2------2-----|
a --3------5------0------3-----|
E --1------3-------------------|

God Bless,
Mike

Comments about this tab

Music_lover - 2005-05-13

Good tab, but i think it is capo 5


TheWizardOfEck - 2006-01-17

i agree that the capo should be on the fifth fret. also, i'm not a big fan of that first hammer on everytime. can't deny that's its there some, but i dont think shawn plays it everytime throughout the verses. but anyways, great tab.


Add a comment/correction

Complimentary Christian Ringtones
Dadamobile and CGR have teamed up to bring your favorite Christian artists right to your phone. Sign up today and get 10 complementary ringtones!
Tab Country
Did you know CGR has a sister site w/ country guitar tabs? Well we do! Its called Tab Country. It has a great archive with a lot of country tabs.
Rockin Tabs
Are you looking for a site that has rock guitar tabs? Then Rockintabs.com is the place for you. It is a budding site with many rock guitar tabs. Submit your tab today.
Tab Gallery
Tab Gallery has a compilation of christian, rock, and country tabs all in one place. Come visit us.