Guitar Tabs
song title    band name

Join Us Today!

Don't strum alone...
be a part of the largest online Christian music community. Browse thousands of guitar tabs and chat w/ musicians like yourself.


It's Free!

This tab has been rated a 4.50 out of 5 for accuracy. (2 votes)Sorry, but you must be logged in to rate this tab.
Click here to log-in, or you can click here to register.
(Registration is free)

All songs owned by corresponding publishing company. If you make copies of any song on this website, be sure to report your usage to CCLI.
Submitted by: mr.mattguitar

Artist: Underoath
Song: Some will seek forgivness others will escape
Album: There only chasing saftey

 ACOUSTIC tuned to D (DADGBe)

 Intro: Chord 1, Chord 2, Chord 3

 Chord 1: x47600
 Chord 2: x00770
 Chord 3: 555770
   e|-----------7-----7-----7--7------------------------------------|
   b|--------5------5-----5---5-------------------------------------|(Guitar 1)
   g|-----7-------6-----4----4--------------------------------------|    x4

   Chorus: Chord 4, Chord 5, Chord 6 (Played through all the chorus)

   Chord 4:557700
   Chord 5:777600
   Chord 6:990700

   Verses are all the same

    The electric guitar part:
    e|------------------------------------------------------------------|
    B|------------------------------------------------------------------|
    G|---14\------9/--------11---------------------------------------------|
    D|---12\------7/--------9---------------------------------------------|
    A|---12\------7/--------9---------------------------------------------|(x8)
    D|------------------------------------------------------------------|
                                                                      
    Ebo Part for electric at end
    
    A|-----2\4--4h5--------------------------------------------------------|
 lowD|--------------5------------------------------------------------------|

    Any questions or comments just e-mail me at lostitatchopsticks@hotmail.com.
      GOD BLESS, MATT

Comments about this tab

UnderOath4gramy - 2005-05-11

chords are very impressive, but the electric at the end is actually chords if you listen well... Bm C# D E A...Power chord style, not 1-4th fret chords.
'welcome
michael brignac
P.S.: Keep practicing underoath stuff! its the best way to get good.


the legacy - 2005-10-23

yup i believe your right.


susbandgeek1990 - 2006-05-06

The electric guitar part is actually Bm A F# G in power chords(Drop D).

God Bless


Add a comment/correction

Complimentary Christian Ringtones
Dadamobile and CGR have teamed up to bring your favorite Christian artists right to your phone. Sign up today and get 10 complementary ringtones!
Tab Country
Did you know CGR has a sister site w/ country guitar tabs? Well we do! Its called Tab Country. It has a great archive with a lot of country tabs.
Rockin Tabs
Are you looking for a site that has rock guitar tabs? Then Rockintabs.com is the place for you. It is a budding site with many rock guitar tabs. Submit your tab today.
Tab Gallery
Tab Gallery has a compilation of christian, rock, and country tabs all in one place. Come visit us.