Guitar Tabs
song title    band name

Join Us Today!

Don't strum alone...
be a part of the largest online Christian music community. Browse thousands of guitar tabs and chat w/ musicians like yourself.


It's Free!

Audio Adrenaline - Good Life

This tab has been rated a 5.00 out of 5 for accuracy. (1 vote)Sorry, but you must be logged in to rate this tab.
Click here to log-in, or you can click here to register.
(Registration is free)

All songs owned by corresponding publishing company. If you make copies of any song on this website, be sure to report your usage to CCLI.
Artist:Audio Adrenaline
Song: Good Life
Album:Underdog 
C1999 ForeFront Records
Steve Cruickshank (postlambjam@hotmail.com)

e---------------------------------------2-x-2-x-2-
B---2-2------5---x------------0-----0---3-x-3-x-3-
G----2----4/6-6--x--4/6\2------2-----1--2-x-2-x-2-
D---------4/6----x----------4-----2-----0-x-0-x-0-
A-0-------2/4----x---------4-----2----------------
  A         C#m            F#m   E      D

e-----------------------------------------0--------0-|
B---2-2------5---x------------0-----0-------3--2h3---|
G----2----4/6-6--x--4/6\2------2-----1---2-----------|
D---------4/6----x----------4-----2-----0------------|
A-0-------2/4----x---------4-----2-------------------|

This big riff thing is basically the only guitar part in the song, it’s
played for the intro and chorus.  The verses are just a bass playing
E,E,F#,D, and the bridge is just drums.

Comments about this tab

Fbar58 - 2005-09-22

e-----------------------------------------0---------0----0-x-0-x-0-
B----2--2-2-----------x-----------------2---2-----2---2--3-x-3-x-3-
G---2-2--2---4/6-6-6--x--5(f)/2------\4---------2--------2-x-2-x-2-
D------------4/6-^-6--x----------------------------------0-x-0-x-0-
A-0----------2/4-4-4--x--------------------------------------------

(f)/= full bend up and slide


Add a comment/correction

Complimentary Christian Ringtones
Dadamobile and CGR have teamed up to bring your favorite Christian artists right to your phone. Sign up today and get 10 complementary ringtones!
Tab Country
Did you know CGR has a sister site w/ country guitar tabs? Well we do! Its called Tab Country. It has a great archive with a lot of country tabs.
Rockin Tabs
Are you looking for a site that has rock guitar tabs? Then Rockintabs.com is the place for you. It is a budding site with many rock guitar tabs. Submit your tab today.
Tab Gallery
Tab Gallery has a compilation of christian, rock, and country tabs all in one place. Come visit us.