Guitar Tabs
song title    band name

Join Us Today!

Don't strum alone...
be a part of the largest online Christian music community. Browse thousands of guitar tabs and chat w/ musicians like yourself.


It's Free!

This tab has been rated a 4.50 out of 5 for accuracy. (2 votes)Sorry, but you must be logged in to rate this tab.
Click here to log-in, or you can click here to register.
(Registration is free)

All songs owned by corresponding publishing company. If you make copies of any song on this website, be sure to report your usage to CCLI.
Submitted by: Timberwolf

Written by:TobyMac
Tuning:DADGBE
CD:Momentum
Tabbed by:Nathan N.
Intro GT1
---------------------------------------------
---------------------------------------------
---------------------------------------------
---------------------------------------------
22-2-2-22-22-2-2-22-22-2-2-22-22-2-2-22------
22-2-2-22-22-2-2-22-22-2-2-22-22-2-2-22------

GT2 with octaver x7
141516----141516---
-------17----------
-7-8-9-----7-8-9---
--------7----------
-------------------
-------------------

Chorus Riff1--v                             End1                This x3
--------------------|---------------------|--------------|-----------------
--------------------|---------------------|--------------|-----------------
--------------------|---------------------|--------------|-----------------
--------------------|---------------------|--------------|-----------------
22-2-0-1-2-0-0-0-1-2|-22-2-0-1-2-0-0-0-1-2|-7-5~---------|-2-2-2-0-1-2-----
22-2-0-1-2-0-0-0-1-2|-22-2-0-1-2-0-0-0-1-2|------8-7-5b-0|-2-2-2-0-1-2-----
Then play End1 and Riff1 x3 Then End1 (verse1 no GT) Then Chorus
Verse2 clean with delay
--------------19-------------------14----------------------15-----------------
------------------------------------------------------------------------------
------------------------------------------------------------------------------
---------------------------------------------------4h5-55---------------------
5h7-5------------------------5-------------------7----------------------5-----
------8-7-5-0--2---0-5h6-7x7---7\0--2--0-5h6-7x7------------2--2-5h6-7x7--7\0-

17--------------------Then Chorus 
----------------------
----------------------
----------------------
--------------5-------
-2--0-5h6-7x7--0------
Interlude
-------------------------------------------------------------------
-------------------------------------------------------------------
-------------------------------------------------------------------
-------------------------------------------------------------------
7---7-6-5---5-7-5---7-6-5---5-7-5---7-6-5---5-7-5---7-6-5---5------
--6-------4-------6-------4-------6-------4-------6-------4--------
Outro
---------------------------------------------------------------------------
---------------------------------------------------------------------------
----------------------------------------------------------------19-19-16b--
---------------------------------7-5-8-6-9-7-11-9-14-12-16-14/16-----------
7---7-5-7-5-0----7---7-5-7-5--7-5------------------------------------------
7---7-5-7-5-0----7---7-5-7-5-----------------------------------------------
GT2
----------------------------------------------------------------------------
--------------------------------------------------------------0-------------
--------------------------------------------------------15-14---0^----------
---------------------------------------------11/17---16---------------------
----------------------------------------------------------------------------
----------------------------------------------------------------------------

Comments about this tab

sixstringes777 - 2005-04-22

try this:

e------------------------
B------------------------
G------------------------
D--2--0------------------
A--------1--0------------
E--------------3---------


Add a comment/correction

Complimentary Christian Ringtones
Dadamobile and CGR have teamed up to bring your favorite Christian artists right to your phone. Sign up today and get 10 complementary ringtones!
Tab Country
Did you know CGR has a sister site w/ country guitar tabs? Well we do! Its called Tab Country. It has a great archive with a lot of country tabs.
Rockin Tabs
Are you looking for a site that has rock guitar tabs? Then Rockintabs.com is the place for you. It is a budding site with many rock guitar tabs. Submit your tab today.
Tab Gallery
Tab Gallery has a compilation of christian, rock, and country tabs all in one place. Come visit us.