Guitar Tabs
song title    band name

Join Us Today!

Don't strum alone...
be a part of the largest online Christian music community. Browse thousands of guitar tabs and chat w/ musicians like yourself.


It's Free!

This tab has not yet been rated for accuracy.Sorry, but you must be logged in to rate this tab.
Click here to log-in, or you can click here to register.
(Registration is free)

All songs owned by corresponding publishing company. If you make copies of any song on this website, be sure to report your usage to CCLI.
Submitted by: ryry29

Artist: All Together Separate
Title: It Will Be Worth It All

This is a great song for the guitar.  It also requires some real vocal talent.  
I found this song a few years ago, wanting to play it for my church, but 
couldn't find tabs on the net.  The only place that even has the chords is CGR.
So I thought I would take a "tab" at it.  Haha, just playing.  If you are 
looking for exactly how it is played on the cd, look somewhere else.
This is by no means perfect, just a close suggestion.  At least it's 
something. ;)

Intro                                        -or- 1 2 3 4 5 6 7 8 1 2 3-6 7 8
   1 2 3 4 1 2-4  1 2 3 4 1 2-4  1 2 3 4 1 2 3 4  1 & 2 & 3 & 4 & 1 & 2 & 4 &
e---------------------------0-----------------------------------------0--------r
B------0-3-2---0*-----0-3-2---0*-----0-3-2---2--------0---3---0---2-----2-2-0--e
G------------2-----------------------------2---0--------0---0---0---0---0-0----p
D----0--------------0--------------0----------------0--------------------------e
A------------------------------------------------------------------------------a
E--3--------------3--------------3----------------3----------------------------t

*I know the 0 on the B string doesn't sound like it fits rhythmically, but it 
does.  There is a brief rest between the 2 on the G and the 0 on the B.  The 
open B should be played on the 4th beat of the measure...
 1  2  3  4  1  2    3  4
E3 D0 B0 B3 B2 G2 rest B0

The same goes for the second time after the open e.  The intro is played 
with 4 beats in a measure, but the verse is played with 3 beats in a measure.

Verse
"It will be worth     it all       that day.               It will be worth it t
 1  2    3  1 2 3 1 2 3  1 2 3 1 2 3    1 2 3 1 2 3 1 2 3 1  2    3  1 2 3 1 2 3
            G            A7             G           A7               G
e-----------3-----3-3-3--0--------------3-----3-3-3-0-0--------------3-----3----
B-----------0-----0-0-3--2------------0-0-----0-0-3-2----------------0-----0----
G-----------0-----0-0-0--0-----0------0-0-----0-0-0-0----------------0-----0---0
D-----------0-----0-0-0--2-----2------0-0-----0-0-0-2----------------0-----0----
A-----------2-----2-2-x--x-----0--------2-----2-2-x-x----------------2-----2----
E-----------3-----3-3-x--x--------------3-----3-3-x-x----------------3-----3----

o go        the straight and narrow  way.    When we finally  see  his face     
  A7            F                    C#dim           Em7               B7
3 1 2 3 1 2 3   1   2  & 3   1 2 & 3 1 2 3 1 2    3  1  2 & 3 1 2  3   1 2 3 1 2
e-0-----0-0-----1------1-1---1---1-1-3-3-3-3-3----3--3----3-3-3-3--3---2-2-2-2-2
B-2-----2-2-----1------1-1---1---1-1-2-2-2-2-2----2--3----3-3-3-3--3---0-0-0-0-0
G-0-----0-0-----2------2-2---2---2-2-3-3-3-3-3----3--0----0-0-0-0--0---2-2-2-2-2
D-2-----2-2-0---3------3-3---3---3-3-2-2-2-2-2----2--2----2-2-2-2--2---1-1-1-1-1
A-x-----x-x-----x------x-x---x---x-x-0-0-0-0-0----0--2----2-2-2-2--2---2-2-2-2-2
E-x-----x-x-----x------x-x---x---x-x-x-x-x-x-x----x--0----0-0-0-0--0---0-0-0-0-0

 and feel  his strong embrace   it will be worth     it all       that day.
 B7  Em7                  F                G
 3   1 2 & 3   1  2 & 3   1 2 3 1  2    3  1 2 3 1 2 3  1 2 3 1 2 3    1 2 3 4 1
e2---3---3-3---3--3-3-3---1----------------3-----3---3--3-----3---3-------------
B0---3---3-3---3--3-3-3---1----------------3-----3---3--2-----2---0--------0-3-2
G2---0---0-0---0--0-0-0---2----------------0-----0---0--0-----0---0-------------
D1---2---2-2---2--2-2-2---3----------------0-----0---0--0-----0---0------0------
A2---2---2-2---2--2-2-2---x----------------2-----2---x--x-----x---x-------------
E0---0---0-0---0--0-0-0---x----------------3-----3---x--x-----x---x----3--------

                                                                      These pres
                                                                A7
  2-4 1 2 3 4 1 2-4 1 2 3 4 1 2 3 4 1 2 3 4 5 6 7 8 1 2 3 4 5 6 7 8 1 2     3  4
e---------------0---------------------------------------0-------------0-----0--0
B---0-----0-3-2---0-----0-3-2---2-------0---3---0---2-----------------2-----2--2
G-2---------------------------2---0-------0---0---0---0---------------0-----0--0
D-------0-------------0---------------0-------------------------------2-----2--2
A---------------------------------------------------------------------x-----x--x
E-----3-------------3---------------3---------------------------------x-----x--x

ent troubles don't compare...
    G                 A7
    1 2  3   1 2   3  1 2 3 1 2 3
e---3--------3-3---3--0-0---------
B---0--------0-0---3--2-----------
G---0--------0-0---0--0-----------
D---0--------0-0---0--2-----------
A---2--------2-2---x--0-----------
E---3--------3-3---x--0-----------

The rest of the 2nd verse is pretty much the same as the first.  There is no
right or wrong way to play this so long as you stick to the basic rhythm.

Chorus

The chorus tabs are very complicated, and I wasn't able to figure them out.  The
chords are as follows:

open D/F# G G#dim 
Am Bm C 
open D/F# G G#dim 
Am Bm C C#dim
Then you play the intro again but a little modified.  If anyone can tab out 
the ending let me know.  If you have any questions or comments email me at 
ryry29@hotmail.com.

with_every_breath

Comments about this tab

No comments/corrections found. Add your own

Complimentary Christian Ringtones
Dadamobile and CGR have teamed up to bring your favorite Christian artists right to your phone. Sign up today and get 10 complementary ringtones!
Tab Country
Did you know CGR has a sister site w/ country guitar tabs? Well we do! Its called Tab Country. It has a great archive with a lot of country tabs.
Rockin Tabs
Are you looking for a site that has rock guitar tabs? Then Rockintabs.com is the place for you. It is a budding site with many rock guitar tabs. Submit your tab today.
Tab Gallery
Tab Gallery has a compilation of christian, rock, and country tabs all in one place. Come visit us.