Guitar Tabs
song title    band name

Join Us Today!

Don't strum alone...
be a part of the largest online Christian music community. Browse thousands of guitar tabs and chat w/ musicians like yourself.


It's Free!

This tab has been rated a 4.00 out of 5 for accuracy. (2 votes)Sorry, but you must be logged in to rate this tab.
Click here to log-in, or you can click here to register.
(Registration is free)

All songs owned by corresponding publishing company. If you make copies of any song on this website, be sure to report your usage to CCLI.
Submitted by: pillarock3

Artist: MXPX
Song: Play It Loud
Album: Before, Everything and After

DROP D TUNING

intro:
E---------------------------------------------------------
B---------------------------------------------------------
G----------3-3-3-33-8-7--3-3-3-33-8-7--3-3-3-33-8-7------8
D-6---1----3-3-3-33-8-7--3-3-3-33-8-7--3-3-3-33-8-7--6---8
A-6---1----1-1-1-11-6-5--1-1-1-11-6-5--1-1-1-11-6-5--6---6
D-6---1----------------------------------------------6----

verse:
E-----------------------------------------------
B-----------------------------------------------
G-33333333333333333333333333-3-3-3-3------------
D-33333333333333333333333333-3-3-3-3--3333-1111-
A-11111111111111111111111111-1-1-1-1--3333-1111-
D-------------------------------------3333-1111-
 ^^^^^^^^^^^^^^^^^^^^^^^^^^^
            p.m

E---------------------------
B---------------------------
G-3-3-3-33-8-7--3-3-3-33-8-7
D-3-3-3-33-8-7--3-3-3-33-8-7
A-1-1-1-11-6-5--1-1-1-11-6-5
D---------------------------

on the second time of the verse you repeat the last chunk
and then play
E-------
B-------
G-----8-
D-6---8-
A-6---6-
D-6-----

Chorus:
E----------------------------------------------
B----------------------------------------------
G---8-7---8-7------8-7---8-7-------------------
D-888-8-888-8----666-6-666-6----111-1-111-1----
A-888-8-888-8-x2-666-6-666-6-x2-111-1-111-1-x2-
D-888-8-888-8----666-6-666-6----111-1-111-1----

E---------------------
B---------------------
G-3-3-3-33-8-7------8-
D-3-3-3-33-8-7--6---8-
A-1-1-1-11-6-5--6---6-
D---------------6-----

verse

chorus x2

bridge
E-----------------------------------------------------
B-----------------------------------------------------
G-0-8-7-3-0-----0-8-7-3-0-----0-8-7-3--8-7-3--8-7-3-8-
D-----------------------------------------------------
A-----------------------------------------------------
D-----------------------------------------------------

AT THE SAME TIME THE GUITAR PLAYES THESE POWER CHORDS (using dubbing)
E-----------------------------------------------------
B-----------------------------------------------------
G-----------------------------------------------------
D-1-1-1-1-1-1-1-1-1-1-1-1-1-1-3-3-3-3-3-3-3-3-3-3-3-3-
A-1-1-1-1-1-1-1-1-1-1-1-1-1-1-3-3-3-3-3-3-3-3-3-3-3-3-
D-1-1-1-1-1-1-1-1-1-1-1-1-1-1-3-3-3-3-3-3-3-3-3-3-3-3-

***drums***
E------------------------------------------
B------------------------------------------
G---------3-------------------3----------8-
D-6---1---3-------6-----1-----3-----6----8-
A-6---1---1-------6-----1-----1-----6----6-
D-6---1-----------6-----1-----------6------

chorus

THE END

congatulations! now you can play "Play It Loud" by MxPx.

please post any comments below. thx

Comments about this tab

krutchfan66 - 2005-11-26

Only one correction but other than that 5 stars. Ok i realize this is the same chord its just easier to play this when its.....

D-8-
A-8-
D-8-
rather than...
G-3-
D-3-
A-1-


Add a comment/correction

Complimentary Christian Ringtones
Dadamobile and CGR have teamed up to bring your favorite Christian artists right to your phone. Sign up today and get 10 complementary ringtones!
Tab Country
Did you know CGR has a sister site w/ country guitar tabs? Well we do! Its called Tab Country. It has a great archive with a lot of country tabs.
Rockin Tabs
Are you looking for a site that has rock guitar tabs? Then Rockintabs.com is the place for you. It is a budding site with many rock guitar tabs. Submit your tab today.
Tab Gallery
Tab Gallery has a compilation of christian, rock, and country tabs all in one place. Come visit us.