Guitar Tabs
song title    band name

Join Us Today!

Don't strum alone...
be a part of the largest online Christian music community. Browse thousands of guitar tabs and chat w/ musicians like yourself.


It's Free!

This tab has been rated a 4.00 out of 5 for accuracy. (1 vote)Sorry, but you must be logged in to rate this tab.
Click here to log-in, or you can click here to register.
(Registration is free)

All songs owned by corresponding publishing company. If you make copies of any song on this website, be sure to report your usage to CCLI.
Submitted by: Cjbrents

One Time Too Many
Building 429
The Space Between Us(2004)

Intro(2x)
G--55-------------55--------------
D--55-x5--33-x3---55-x5--33-------
A--33-x5--33-x3---33-x5--33-----3-
E-----x3--11-x1------x3--11--3h5--

Verse(2x)
G--------5-----5------5-----5-
D--------5-----5------5-----5-
A----3333--2222---3333--------
E-----------------------3333--
(PM) ....  ....   ....  ....

Pre-Chorus
Strum these chords: A  G  C  G

Chorus
G--55-------------55------------
D--55-x5--33-x3---55-x5--33-x3--
A--33-x5--33-x3---33-x5--33-x3--
E-----x3--11-x1------x3--11-x1--

G--------------------------------
D--------------------------------
A--15-14----12h13-12h13-12h13-15-
E--------15----------------------

G--55-------------55------------
D--55-x5--33-x3---55-x5--33-x3--
A--33-x5--33-x3---33-x5--33-x3--
E-----x3--11-x1------x3--11-x1--

G-----------------------------
D-----------------------------
A--15-14----15(BEND DOWNWARD)-
E--------15-------------------

G--55-------------55--------------
D--55-x5--33-x3---55-x5--33-------
A--33-x5--33-x3---33-x5--33-----3-
E-----x3--11-x1------x3--11--3h5--

Verse(2x)
Pre-Chorus
Chorus
Bridge(No Guitar)

Fill
G--55----------------
D--55-x5--33---PAUSE-
A--33-x5--33---------
E-----x3--11---------

Chorus

Chorus 2
G--55------------------55-----------
D--55-x5--33---PAUSE---55-x5--33-x3-
A--33-x5--33-----------33-x5--33-x3-
E-----x3--11--------------x3--11-x1-

G--------------------------------
D--------------------------------
A--15-14----12h13-12h13-12h13-15-
E--------15----------------------

G--55-------------55------------
D--55-x5--33-x3---55-x5--33-x3--
A--33-x5--33-x3---33-x5--33-x3--
E-----x3--11-x1------x3--11-x1--

G-----------------------------
D-----------------------------
A--15-14----15(BEND DOWNWARD)-
E--------15-------------------

G--55-------------55--------------
D--55-x5--33-x3---55-x5--33-------
A--33-x5--33-x3---33-x5--33-----3-
E-----x3--11-x1------x3--11--3h5--

Intro

Comments about this tab

Kutless Fan - 2005-05-27

what does "bend downward" mean?


Ryan Freeland - 2005-06-04

Pull the string down..


underoathrocks - 2005-09-16

thanks man!


E-Dogg777 - 2005-10-13

If you play this song in Drop-D, then I think you've got it. (That's how B429 plays it)


Fenderuser91 - 2006-08-08

Does anyone know were i can get a bass tab for this song???????


drumbum_nzbpt - 2007-02-12

this song is definately played in drop c. i think youve got the chords right but its played in drop c.


musician4God15 - 2008-04-17

What Does The Rhythm Guitar Play Durring The Riff in the Chorus


Add a comment/correction

Complimentary Christian Ringtones
Dadamobile and CGR have teamed up to bring your favorite Christian artists right to your phone. Sign up today and get 10 complementary ringtones!
Tab Country
Did you know CGR has a sister site w/ country guitar tabs? Well we do! Its called Tab Country. It has a great archive with a lot of country tabs.
Rockin Tabs
Are you looking for a site that has rock guitar tabs? Then Rockintabs.com is the place for you. It is a budding site with many rock guitar tabs. Submit your tab today.
Tab Gallery
Tab Gallery has a compilation of christian, rock, and country tabs all in one place. Come visit us.