Guitar Tabs
song title    band name

Join Us Today!

Don't strum alone...
be a part of the largest online Christian music community. Browse thousands of guitar tabs and chat w/ musicians like yourself.


It's Free!

This tab has been rated a 4.00 out of 5 for accuracy. (12 votes)Sorry, but you must be logged in to rate this tab.
Click here to log-in, or you can click here to register.
(Registration is free)

All songs owned by corresponding publishing company. If you make copies of any song on this website, be sure to report your usage to CCLI.
Submitted by: snipr

Mxtabs [http://www.mxtabs.net]
Song: Game of Love
Band: Subseven
Album: Free To Conquer
Tuning: Drop C
Tabbed By: Aaron Bevacqua (swnkylaxplyr@earthlink.net)

Ok, this is the new version of Game of Love, off of Free To Conquer. It's
just a little different. It's mainly a different song order and different
tuning. 

.=PM
b=slight bend
B=large bend
~=let ring

Intro/Verse: (distortion)

D:--------------------------------------------	        
A:--------------------------------------------					
F:--10/9---5/7---10/9---12/10---9/10----------   6 Times  				 
C:--x-/x---x/x---x-/x---x-/x----x/x-----------				
G:0-8-/7-0-3/5-0-8-/7-0-10/8--0-7/8-----------					
C:0------0-----0------0-------0---------------						 

Chorus:

D:---------------------------------------------10~~
A:---------------------------------------------13b~
F:1010101010101010101010101010101010101010---------
C:x-x-x-x-x-x-x-x-x-x-x-x-x-x-x-x-x-x-x-x----------
G:8-8-8-8-8-8-8-8-8-8-8-8-8-8-8-8-8-8-8-8--000-----
C:-----------------------------------------000-----
			    ...

Verse x2
chorus x1

Post Chorus thingie:

D:-------------------------------------
A:-------------------------------------
F:---10/9----5/7----10/9--12/10--9/10--
C:---x-/x----x/x----x-/x--x-/x---x/x---
G:00-8-/7-00-3/5-00-8-/7--10/8---7/8---
C:00------00-----00--------------------



Verse x4


Bridge 1:

D:-----------------------------------------------------10~~-
A:-----------------------------------------------------13b~-
F:10101010101010101010101010----101010101010101010----------
C:x-x-x-x-x-x-x-x-x-x-x-x-x--5~-x-x-x-x-x-x-x-x-x-----------
G:8-8-8-8-8-8-8-8-8-8-8-8-8--5~-8-8-8-8-8-8-8-8-8--000------
C:---------------------------5~--------------------000------
				...

Verse x4


Bridge 2:

D:------------------------------------------------------------------
A:------------------------------------------------------------------
F:10101010101010101010-9/101010101010-12121212121212-14141414141414-
C:x-x-x-x-x-x-x-x-x-x--x/x-x-x-x-x-x--x-x-x-x-x-x-x--x-x-x-x-x-x-x-- 3 times
G:8-8-8-8-8-8-8-8-8-8--7/8-8-8-8-8-8--10101010101010-12121212121212-
C:------------------------------------------------------------------


Verse x4			                    C:---
                                                          G:000-
On the 1st, 3rd, and 4th time you do the verse, end with  C:000-
		                                  ...


Ok, there you have the Free To Conquer version of Game of Love, ENJOY!!

Comments about this tab

vote4pedro - 2005-02-14

where did u here the new version the cd doesn't come out until march?


vote4pedro - 2005-02-14

hear*


rj51fan - 2005-03-19

hey dude great job and same to the rest of u who did subsevrn tabs cause i can play all the subseven songs on this site and theres only been a few minor setbacks but for the most part its all good.i just saw these guys last nite in omaha ,ne and they were great!theyre by far my favorite band and i hope 2 c more of there stuff on this site soon.thanx!

baseball_punk


snipr - 2005-04-18

I resent the 3.67 score on my tab. I think that its downright accurate.

And Pedro, MyJonesMusic.com had a free download of the song before the cd came out, thats how I heard it.


Arafax - 2005-05-31

I just got back from seeing them in concert and needless to say, they rocked my head off! Litterally... there were no mosh pits at all (too much uptight security) so I had to headbang my brains out. Well, after I asked the lead guitar player how to play this song and he "drop C and its 10 9 5 7 10 9 12 10 9 10" but he said it really fast lol. So I had him write down what he just said and he actually tabbed out the intro for me.

The way he tabbed it was exactly the way you have it except he only hit the open 6th string, not the open 6th and 5th. So it was...
--109--57---109------
------------------
--87---35---57------
0----0----0----0-
You get the idea. Anyways its a shame these guys don't have a bigger following. I felt like I was the only person there who knew who they were. And they said they all have "real" jobs when they don't do this to make money... so support them and tell your friends about them lol.


Arafax - 2005-05-31

BTW, don't worry about the rating. I rated it a 5 and it actually brought the thing down. And I know I gave it a 5 too...


Add a comment/correction

Complimentary Christian Ringtones
Dadamobile and CGR have teamed up to bring your favorite Christian artists right to your phone. Sign up today and get 10 complementary ringtones!
Tab Country
Did you know CGR has a sister site w/ country guitar tabs? Well we do! Its called Tab Country. It has a great archive with a lot of country tabs.
Rockin Tabs
Are you looking for a site that has rock guitar tabs? Then Rockintabs.com is the place for you. It is a budding site with many rock guitar tabs. Submit your tab today.
Tab Gallery
Tab Gallery has a compilation of christian, rock, and country tabs all in one place. Come visit us.