Guitar Tabs
song title    band name

Join Us Today!

Don't strum alone...
be a part of the largest online Christian music community. Browse thousands of guitar tabs and chat w/ musicians like yourself.


It's Free!

This tab has been rated a 5.00 out of 5 for accuracy. (1 vote)Sorry, but you must be logged in to rate this tab.
Click here to log-in, or you can click here to register.
(Registration is free)

All songs owned by corresponding publishing company. If you make copies of any song on this website, be sure to report your usage to CCLI.
Submitted by: jamforchrist123

By The Tree
Root
Far Away
Tabbed By: JFX123

I've Finally Figured It Out.
I Don't Know If This Is Correct But It Sounds
Good To Me. It Also Could Be In A Different Key
Because I Can't Find My CD.


E|-----------------------------------------|
B|---------8---------------9-9-9-9-9-8-----|
G|---8-7-8---8-7-8-5-8-7-8-------------8---|
D|-----------------------------------------|
A|-----------------------------------------|
E|-----------------------------------------|


E|-----------------------------------------|
B|---------6-------8-------9-9-9-9-9-8-----|
G|---8-7-8---8-7-8---8-7-8-------------8---|
D|-----------------------------------------|
A|-----------------------------------------|
E|-----------------------------------------|

Comments about this tab

jamforchrist123 - 2005-03-03

Oh Yeah, If You See Anything Wrong, Or You Just Feel Like Saying Hi, Place A Comment.


jamforchrist123 - 2005-10-14

I know it sounds like I am nagging, but PLEASE RATE!!!


Add a comment/correction

Complimentary Christian Ringtones
Dadamobile and CGR have teamed up to bring your favorite Christian artists right to your phone. Sign up today and get 10 complementary ringtones!
Tab Country
Did you know CGR has a sister site w/ country guitar tabs? Well we do! Its called Tab Country. It has a great archive with a lot of country tabs.
Rockin Tabs
Are you looking for a site that has rock guitar tabs? Then Rockintabs.com is the place for you. It is a budding site with many rock guitar tabs. Submit your tab today.
Tab Gallery
Tab Gallery has a compilation of christian, rock, and country tabs all in one place. Come visit us.