Guitar Tabs
song title    band name

Join Us Today!

Don't strum alone...
be a part of the largest online Christian music community. Browse thousands of guitar tabs and chat w/ musicians like yourself.


It's Free!

This tab has been rated a 3.89 out of 5 for accuracy. (9 votes)Sorry, but you must be logged in to rate this tab.
Click here to log-in, or you can click here to register.
(Registration is free)

All songs owned by corresponding publishing company. If you make copies of any song on this website, be sure to report your usage to CCLI.
Submitted by: jaguarfxf

INTRO
Guitar 1

D-77--77--77--77--------33--33--33--33--55--55--55--55
A-77--77--77--77-X4-----33--33--33--33--55--55--55--55
D-77--77--77--77--------33--33--33--33--55--55--55--55

Guitar 2
E
B---------------3-5---------------------------------------3-5---
G---2-2-5-4-2-2--------X3---2-2-5-4-2-0-2-3---2-2-5-4-2-2-------X4
D
A
D

E
B-------------3-5-----
G-2-2-5-4-2-2-------X4---repeat whole thing 
D
A
D

The chorus and verses are basically the same as the intro for both 
guitars listen and you will hear it.

BRIDGE

E
B
G
D-7--3--5--7--3--5555----7777--5555--7777--3333--555--7777--5555--3333-5
A-7--3--5--7--3--5555----7777--5555--7777--3333--555--7777--5555--3333-5
D-7--3--5--7--3--5555----7777--5555--7777--3333--555--7777--5555--3333-5

I LOVE THIS SONG!!
Rock Out for Jesus!

Plz add corrections I know its far from perfect

Comments about this tab

{LFJ}guitarist - 2005-02-17

its pretty good! =) good job


Adam K - 2005-05-06

major correction here.
INTRO
Guitar 1

D-77--77--77--77--------33--33--33--33--00--00--00--00
A-77--77--77--77-X4-----33--33--33--33--00--00--00--00
D-77--77--77--77--------33--33--33--33--00--00--00--00

Guitar 2
E[----------3----------------------------------]
B[-------1--------3-5--------------------------]
G[---2-2-----2-2--------(X3)---2-2-5-4-2-2-4-5-]x2
D
A
D



BRIDGE

E
B
G
D-7--3--0--7--3--0000----7777--5555--7777--2233-7777--5555--3333-0
A-7--3--0--7--3--0000----7777--5555--7777--3333-7777--5555--3333-0
D-7--3--0--7--3--0000----7777--5555--7777--2233-7777--5555--3333-0


sXcountry - 2005-06-16

um, actually, the intro sounds like you play the chords 3 times instead of 2
D-777--777--777--777--------333--333--333--333--000--000--000--000
A-777--777--777--777-X4-----333--333--333--333--000--000--000--000
D-777--777--777--777--------333--333--333--333--000--000--000--000

and the first time you play
D-...-0000-[
A-...-0000-[
D-...-0000-[
in the bridge, it sounds muted

good tab, though


audioswitch04 - 2005-08-11

On the second time playing the intro riff the rhythm guitar plays this:

d --7---9--10--3--0
A --7---7---7--3--0
D --7---7---7--3--0

Just listen to the song for the right moment to change the chords.


relientkboy - 2005-12-26

Hi there. Good tab,but the rythm guitar in the intro and verse should play this.
D-7-7-7--3-3-3---0-0-0 D-7-7-7
A-7-7-7--3-3-3---0-0-0 4x each chord and 4 sets of 4:A-7-7-7
D-7-7-7--3-3-3---0-0-0 D-7-7-7

The only differnce is going to and open set of hits.
I love anberlin!!! and of course Relient K
Keep rockin'
Going to see these guys in concert in 30 days!!!
-\NaD/-


relientkboy - 2005-12-26

Sorry my computer went WACK it should be:

D-7-7-7--3-3-3---0-0-0 D-7-7-7
A-7-7-7--3-3-3---0-0-0 A-7-7-7 4x each chord and 4 sets of 4:A-7-7-7
D-7-7-7--3-3-3---0-0-0 D-7-7-7

-\


guitarcordfreak - 2007-03-12

I found it's a little easier to play the main riff of 16th notes like this.

G-----------12-----------12-----------12---------------
D-------10------------10-----------10------------12h14-
A-12/12---------12/12--------12/12---------12/12-------

it's just a little easier fingering this way.


Add a comment/correction

Complimentary Christian Ringtones
Dadamobile and CGR have teamed up to bring your favorite Christian artists right to your phone. Sign up today and get 10 complementary ringtones!
Tab Country
Did you know CGR has a sister site w/ country guitar tabs? Well we do! Its called Tab Country. It has a great archive with a lot of country tabs.
Rockin Tabs
Are you looking for a site that has rock guitar tabs? Then Rockintabs.com is the place for you. It is a budding site with many rock guitar tabs. Submit your tab today.
Tab Gallery
Tab Gallery has a compilation of christian, rock, and country tabs all in one place. Come visit us.