Guitar Tabs
song title    band name

Join Us Today!

Don't strum alone...
be a part of the largest online Christian music community. Browse thousands of guitar tabs and chat w/ musicians like yourself.


It's Free!

This tab has been rated a 5.00 out of 5 for accuracy. (2 votes)Sorry, but you must be logged in to rate this tab.
Click here to log-in, or you can click here to register.
(Registration is free)

All songs owned by corresponding publishing company. If you make copies of any song on this website, be sure to report your usage to CCLI.
Submitted by: guitarbmee

artist: mourning september
album: a man can change his stars
song: glorietta


This song is so awesome, but i couldn't find ANY tabs for mourning september,
anywhere. so i had to tab at least this song out. Oh and listen to the song
for timing/rhythm. by the way, mourning september plays this song in drop c,
but the only difference would be that occasionally the 355 chord would just 
be played open in drop c (though not always)
anyways, here it is...

intro:

guitar one:
e|---------------------------------------------------------------
b|---------------------------------------------------------------
g|5-54-5-4-5-4-5545-54-5-4-5-4-5545-54-5-4-5-4-5545-54-5-4-5-4-5-
d|5-55-5-5-5-5-5555-55-5-5-5-5-5555-55-5-5-5-5-5555-55-5-5-5-5-5-
a|3-33-3-3-3-3-3333-33-3-3-3-3-3333-33-3-3-3-3-3333-33-3-3-3-3-3-
D|---------------------------------------------------------------

guitar two:
e|-------------------------------------------------------------------
b|-------------------------------------------------------------------
g|---------------------------------------------------------1212121212
d|---------------------------------------------------------xxxxxxxxxx
a|3---------------5---------------7---------------8--------1010101010
D|-------------------------------------------------------------------

intro cont'd:

gtr 1:
e|----------------------------------------------------------xxxxxxx
b|----------------------------------------------------------xxxxxxx
g|5-54-5-4-5-4-5545-54-5-4-5-4-5545-54-5-4-5-4-5545-54-5-4-5xxxxxxx
d|5-55-5-5-5-5-5555-55-5-5-5-5-5555-55-5-5-5-5-5555-55-5-5-5xxxxxxx
a|3-33-3-3-3-3-3333-33-3-3-3-3-3333-33-3-3-3-3-3333-33-3-3-3xxxxxxx
D|----------------------------------------------------------xxxxxxx

gtr 2:
e|-------------------------------------------------------------------
b|-------------------------------------------------------------------
g|-------------------------------------------------------------------
d|3--2-0----------3--2-0-----------3--2-0-----------3--2-0-----------
a|-------3-2-3-333--------3-2-3-333--------3-2-3-333--------3-2-3----
D|-------------------------------------------------------------------

intro cont'd/chorus:

gtr 1:
e|----------------------------------------------
b|----------------------------------------------
g|----------------------------------------------
d|3--3--3--3--0--0--0--0--7--7--7--7--5--5--5--5
a|3--3--3--3--0--0--0--0--7--7--7--7--5--5--5--5
D|3--3--3--3--0--0--0--0--7--7--7--7--5--5--5--5

gtr 2:
e|----------------------------------------------
b|----------------------------------------------
g|----------------1010-9------------------------
d|3--3--3--3--0--0xxx--x--7--7--------5--5--5--5
a|3--3--3--3--0--08-8--7--7--73-3--2--5--5--5--5
D|3--3--3--3--0--0--------7--7--------5--5--5--5

verse:

gtr 1:
e|3-3-3-3- (just keep doing that a for a while)
b|---1---1
g|--------
d|--------
a|--------
D|--------

chorus:

just do the last continuation of the intro for both gtrs


2nd verse:

same thing as first verse


bridge (i guess you could call it that):

gtr 1:
e|----------------------
b|----------------------
g|5-5-55*---------------- (*=stop the chord from ringing)
d|5-5-55*----------------
a|3-3-33*----------------
D|----------------------

gtr 2:
e|-----------------------
b|-----------------------
g|----55*--12-12-12-12-12
d|10\-55*--xxxxxxxxxxxxxx
a|xx--33*--10-10-10-10-10
D|10\--------------------

bridge cont'd:

gtr 1:
e|-----------------------
b|-----------------------
g|5--5--5--5------------- (repeat as needed)
d|5--5--5--5--3--3--3--3-
a|3--3--3--3--3--3--3--3-
D|------------3--3--3--3-

if anyone could figure out the lead over gtr 1ís part, that would be great.



then, right before the last chorus, you play this:

gtr1
e|---------------------------------------------------------------
b|---------------------------------------------------------------
g|5-54-5-4-5-4-5545-54-5-4-5-4-5545-54-5-4-5-4-5545-54-5-4-5-4-5-
d|5-55-5-5-5-5-5555-55-5-5-5-5-5555-55-5-5-5-5-5555-55-5-5-5-5-5-
a|3-33-3-3-3-3-3333-33-3-3-3-3-3333-33-3-3-3-3-3333-33-3-3-3-3-3-
D|---------------------------------------------------------------

gtr 2:
e|---------------------------------------------------------------
b|---------------------------------------------------------------
g|---------------------------------------------------------------
d|---------------------------------------------------------------
a|--------------------------------7------------------------------
D|---------------------------------------------------------------

chorus:
the first time you play the chorus, it's the same as all the others,
but at the start of the second time through the chorus, you play this:

both guitars:
e|---------------
b|---------------
g|---------------
d|3-----333*--x3x
a|3-----333*--x3x
D|3-----333*--x3x
               .   (.=palm mute)
then gtr 1 just finishes the chorus doing gtr 2's chorus part, while 
gtr 2 does what i couldn't figure out for the bridge.

outro:
gtr 1 just plays the verse riff for a short time while gtr 2 strums
a 355 chord (open in drop C) and then builds it up and then everything stops.
the end

god bless

Comments about this tab

mattytsungirl - 2005-04-06

i love this song good job God Bless Complete In Christ -Gabby


Add a comment/correction

Complimentary Christian Ringtones
Dadamobile and CGR have teamed up to bring your favorite Christian artists right to your phone. Sign up today and get 10 complementary ringtones!
Tab Country
Did you know CGR has a sister site w/ country guitar tabs? Well we do! Its called Tab Country. It has a great archive with a lot of country tabs.
Rockin Tabs
Are you looking for a site that has rock guitar tabs? Then Rockintabs.com is the place for you. It is a budding site with many rock guitar tabs. Submit your tab today.
Tab Gallery
Tab Gallery has a compilation of christian, rock, and country tabs all in one place. Come visit us.