Guitar Tabs
song title    band name

Join Us Today!

Don't strum alone...
be a part of the largest online Christian music community. Browse thousands of guitar tabs and chat w/ musicians like yourself.


It's Free!

This tab has not yet been rated for accuracy.Sorry, but you must be logged in to rate this tab.
Click here to log-in, or you can click here to register.
(Registration is free)

All songs owned by corresponding publishing company. If you make copies of any song on this website, be sure to report your usage to CCLI.
Submitted by: 3k_Poseidon

I'm Alive
Audio Adrenaline

Well, This is the easiest and most complete way I've found to play the main riff
in this song. Most of it seemed pretty easy, basic pentatonic stuff.


This is the into riff. 
e---------------------------------------------------------
B---5-------------5-------------5-------------------------
G-7---7-5-------7---7-5-------7---7-5--------5------5-----
D-----------7-5-----------7-5-----------7-5----7-5----7-5-
A---------------------------------------------------------
E---------------------------------------------------------

e------------------------------------------------------------
B---5-------------5---5----------5---------------------------
G-7---7-5-------7---7---5------7---7-5--------5------5-------
D-----------7-5------------7-5-----------7-5----7-5----7-5-7-
A------------------------------------------------------------
E------------------------------------------------------------

Just listen to it to get that timing down. It's not a very timingly strict song.
The movements are a bit bluesy at times.

In later there is a variation on the riff. This is as close as I got.
e-----------------------------------------------------------------
B---5-------------5-------------5------------8-------8------------
G-7---7-5-------7---7-5-------7---7-5----------8p7p5---8p7p5------
D-----------7-5-----------7-5-----------7-5-----------------------
A-------------------------------------------------------------7-/-
E-----------------------------------------------------------------
That last note is a slide down.... I always forget which symbol is which.

The last section there with the pull offs, I'm not too sure they're pull offs. 
They might be a bend down from the 7th fret then pull off to the 5th. Very
common in rock, but my playing isn't there yet. I can perform this technique,
just not off the cuff, much like a beginner playing basic chords, I can do it,
just not smoothly.

So hope this helps, and If anyone wants me to figure out the rest (only spent a 
small amount of time on this, I'm willing to spend more) just email me.

Nathan (Gollumandsmeagol@comcast.net)

God Bless

Comments about this tab

No comments/corrections found. Add your own

Complimentary Christian Ringtones
Dadamobile and CGR have teamed up to bring your favorite Christian artists right to your phone. Sign up today and get 10 complementary ringtones!
Tab Country
Did you know CGR has a sister site w/ country guitar tabs? Well we do! Its called Tab Country. It has a great archive with a lot of country tabs.
Rockin Tabs
Are you looking for a site that has rock guitar tabs? Then Rockintabs.com is the place for you. It is a budding site with many rock guitar tabs. Submit your tab today.
Tab Gallery
Tab Gallery has a compilation of christian, rock, and country tabs all in one place. Come visit us.