Guitar Tabs
song title    band name

Join Us Today!

Don't strum alone...
be a part of the largest online Christian music community. Browse thousands of guitar tabs and chat w/ musicians like yourself.


It's Free!

This tab has been rated a 5.00 out of 5 for accuracy. (5 votes)Sorry, but you must be logged in to rate this tab.
Click here to log-in, or you can click here to register.
(Registration is free)

All songs owned by corresponding publishing company. If you make copies of any song on this website, be sure to report your usage to CCLI.
Submitted by: Andy Miller

Name: Letting Go (solo)
Artist: Jeremy Camp
Album: Restored
Standard tuning

E)-----0-2-4hold-2-0-0-2---0--)
B)-0-2-------------------4---2)

E)-----0-2-4hold-2-0-0-2-5-4-2-4-7-2)
B)-0-2------------------------------)

tabbed by andy miller

Comments about this tab

PromiseKept_86 - 2005-02-15

its good fits with the song when i play it. Good job :)


takamine cory - 2005-02-26

good job great solo easy and sounds good
Play it down an octave whlie playing the CD it adds more excitement


matt j t - 2005-03-20

Hey guys,

There's a song on this CD that I would love to play

It's called "Lay Down My Pride"

I would be great if someone could figure this song out,

because i've tried (and failed).


imamusician16 - 2005-06-15

matt, please stop posting that on everyone's tab...

also, here's an alternate fingering for the solo. i find its easier to play this way. most of it is a major scale played up on the neck a little bit.

h=hammer on, s=slide, p=pull off
e------------------------------------------------------------------7----
b------------7-9---7---7---------------------7-9---7---7--10p9-7-9---7--
G----6h8--9----------9---8s9-6-------6h8--9----------9------------------
D--9-------------------------------9------------------------------------
A-----------------------------------------------------------------------
E-----------------------------------------------------------------------

well there ya go, my first written down tab of anything.. its 99% accurate as was the first one, but i find this one easier to play.

god bless,
jeremy


datalcott - 2005-10-13

Hey guys. You're making it harder than you have to. Try this fingering, it's like playing butter :)

e--------------------------------|---------------------------------------
b----------9---------------------|-----------9------------10p9----9--12--
G-----9h11----11-9--11--8--9-----|------9h11----11-9--11-------11------9-
D-9h11------------------------11-|-9h11----------------------------------
A--------------------------------|---------------------------------------
E--------------------------------|---------------------------------------


Add a comment/correction

Complimentary Christian Ringtones
Dadamobile and CGR have teamed up to bring your favorite Christian artists right to your phone. Sign up today and get 10 complementary ringtones!
Tab Country
Did you know CGR has a sister site w/ country guitar tabs? Well we do! Its called Tab Country. It has a great archive with a lot of country tabs.
Rockin Tabs
Are you looking for a site that has rock guitar tabs? Then Rockintabs.com is the place for you. It is a budding site with many rock guitar tabs. Submit your tab today.
Tab Gallery
Tab Gallery has a compilation of christian, rock, and country tabs all in one place. Come visit us.