Guitar Tabs
song title    band name

Join Us Today!

Don't strum alone...
be a part of the largest online Christian music community. Browse thousands of guitar tabs and chat w/ musicians like yourself.


It's Free!

This tab has been rated a 3.33 out of 5 for accuracy. (3 votes)Sorry, but you must be logged in to rate this tab.
Click here to log-in, or you can click here to register.
(Registration is free)

All songs owned by corresponding publishing company. If you make copies of any song on this website, be sure to report your usage to CCLI.
Submitted by: swimmer009

-------------------------------------------------------------------------------
			    frontline solo-Pillar
-------------------------------------------------------------------------------
Tabbed by:sami
Email:swimmer_boy90@hotmail.com

Tuning:cgcfad
Me and my guitar teacher made the solo so im pretty shure its good and when play along it sounds fine
d|---------------------------------------------------------------------------|
a|---------------------------------------------------------------------------|
f|-(3)--(2)--------------------5---7p5\3--0----3-------------------------------|
c|-------------5-----5/8------------------------------------------------------|
g|---------------------------------------------------------------------------|
C|---------------------------------------------------------------------------|
                      the bracets are optional sounds good with or withought                      
a little destortion sounds great.
d|---------------------------------------------------------------------------|
a|---------------------------------------------------------------------------|
f|--(3)--(2)---5p3---5/7---5--7--7/10-------10\7---5--------------------------|
g|---------------------------------------------------------------------------|
g|---------------------------------------------------------------------------|
C|---------------------------------------------------------------------------|
once again those ones in brackets you can barley hear but there there
d|---------------------------------------------------------------------------|
a|-----------------------------------------------------13--------------------|
f|-----------7--7/10/12--------12--10--10------------------------------------|
c|--(8)---(7)---------------------------------12\10-----------7h8--------------|
g|------------------------------------------------------------------8---------|
C|---------------------------------------------------------------------------|
those are the same notes as before in brackets just in a easier location...trust me

e|---------------------------------------------------------------------------|
B|---------------------------------------------------------------------------|
G|---------------------------------------------------------------------------|
D|---------------------------------------------------------------------------|
A|---------------------------------------------------------------------------|
E|---------------------------------------------------------------------------|
There you go you know know how to play the solo... i might do the whole thing later  i dont have time
 at the moment anddd PILLAR ROCKS.  If theres any mistakes i put on here tell me i want to know 


| /  slide up
| \  slide down
| h  hammer-on
| p  pull-off
| ~  vibrato
| +  harmonic
| x  Mute note

Comments about this tab

swimmer009 - 2005-02-12

soory that 13 in there sould be between the 7/8 and eight


swimmer009 - 2005-02-12

it should go
----------------------------------------
---------------------13-------------------
----------------------------------------
-----------7--8--------------7h8-------------
-----------------------------------8-----
----------------------------------------


swimmer009 - 2005-02-12

sory again it should go
----------------------------------------
---------------13-------------------------
----------------------------------------
----8---7------------7h8---------------------
----------------------------8------------
----------------------------------------


swimmer009 - 2005-02-12

could you geys put some comments on here pls i wuld like to know your thoughts oin the song thx


GuitarBeemer - 2005-02-17

I'm not exactly sure on this tab, man.
i haven't been able to try it, but i know the song pretty well. it just looks a little kinda off. it doesn't look like all of the tabs are there.


Josephde - 2005-02-17

Well, it's not horribly accurate, but majority is ok. Definitely not a 5 though. And you missed a whole line of tab after that too...


swimmer009 - 2005-02-17

when i play it it sounds pretty good well could you tell me what im missing


swimmer009 - 2005-02-17

i didnt know this was considerd part of the solo sorry some otherr people said it wasnt that accurat but i think it'ds ok

|--------------------------------------------------------------------------|
|--------------------------------------------------------------------------|
|--------------------------------------------------------------------------|
|-5-5-5--5-5-5--5-----------------------------------------------------------------|
|-5-5-5--5-5-5--5--------------------5-------3---------------------------------------|
|-5-5-5--5-5-5--5----5/19\5--5-5--3----0--1----1-----5/19\5----------------
do this a couple times...........then


swimmer009 - 2005-02-18

the solo is also played with a long delay by the way


Josephde - 2005-03-02

Ok, here's the solo:

http://www.photogeist.com/frontlinesolo.GIF


Calypsan - 2006-11-08

Its a pretty good attempt at the solo but I own the songbook and can tell you your pretty far off


swimmer009 - 2007-01-06

ya i have the book now to i think i made this like 2 years ago now


Add a comment/correction

Complimentary Christian Ringtones
Dadamobile and CGR have teamed up to bring your favorite Christian artists right to your phone. Sign up today and get 10 complementary ringtones!
Tab Country
Did you know CGR has a sister site w/ country guitar tabs? Well we do! Its called Tab Country. It has a great archive with a lot of country tabs.
Rockin Tabs
Are you looking for a site that has rock guitar tabs? Then Rockintabs.com is the place for you. It is a budding site with many rock guitar tabs. Submit your tab today.
Tab Gallery
Tab Gallery has a compilation of christian, rock, and country tabs all in one place. Come visit us.