Guitar Tabs
song title    band name

Join Us Today!

Don't strum alone...
be a part of the largest online Christian music community. Browse thousands of guitar tabs and chat w/ musicians like yourself.


It's Free!

This tab has been rated a 5.00 out of 5 for accuracy. (1 vote)Sorry, but you must be logged in to rate this tab.
Click here to log-in, or you can click here to register.
(Registration is free)

All songs owned by corresponding publishing company. If you make copies of any song on this website, be sure to report your usage to CCLI.
Submitted by: cftoo

Only You
David Crowder Band
Illuminate

Open E Tuning

I know Daniel has a minutely slightly different version
but it'd be easier to not write out all the differences 
(ie. Added Chorus, different fourth measure)



Introduction/Interlude:
-------------------------------------------------
-------------1-----------1h3---------3-----------
---------0-------0-----------------------0-------
-----0h2-------------2-----------2-----------2---
-3-----------------------------------------------
-------------------------------------------------

-------------------------------------------------
-------------3-----------5---3---1---0-----------
---------0-------0-----------------------2---0---
-------------------------------------------------
-2-------------------2---------------------------
-------------------------------------------------

---------------------------------0---------------
-------------0-----------0h1-------------1-------
---------0-------2-----------2---------------2---
-----0h2-------------2---------------------------
-0-----------------------------------------------
-------------------------------------------------

-------------------------------------------------
-------------1-------------------1---------------
---------0h2---------2p0-----------------0-------
-------3-----------------------------3-----------
-----3-------------------------------------------
-1-----------------------------------------------

-------------------------------------------------
-------------1-----------1h3---------3-----------
---------0-------0-----------------------0-------
-----0h2-------------2-----------2-----------2---
-3-----------------------------------------------
-------------------------------------------------

-------------------------------------------------
-------------3-----------5---3---1---0-----------
---------0-------0-----------------------2---0---
-------------------------------------------------
-2-------------------2---------------------------
-------------------------------------------------

---------------------------------0---------------
-------------0-----------0h1-------------1-------
---------0-------2-----------2---------------2---
-----0h2-------------2---------------------------
-0-----------------------------------------------
-------------------------------------------------

-------------------------------------------------
-----------------0h1-----1h3-----1---------------
---------0h2---------------------------------0---
-------3-----------------------------------------
-----3-------------------------------------------
-1-----------------------------------------------


Verse: (x2)
-------------------------------------------------
-------------1-----------------------1-----------
---------0-------0---------------0-------0-------
-----0h2-------------2---0-h-2---------------2---
-3-----------------------------------------------
-------------------------------------------------

-------------------------------------------------
-------------1-----------------------1-----------
---------0-------0---------------0-------0-------
-----0---------------0---0-h-2---------------2---
-2-----------------------------------------------
-------------------------------------------------

-------------------------------------------------
-------------1-----------------------1-----------
---------0-------0---------------0-------0-------
-----2---------------2---2-h-3---------------2---
-0-----------------------------------------------
-------------------------------------------------

-------------------------------------------------
-------------1-------------------1---------------
---------0h2---------2p0-----------------0-------
-------3-----------------------------3-----------
-----3-------------------------------------------
-1-----------------------------------------------


Chorus:
-------------------------3-----------3-----------
-------------1---------------------------1-------
---------0-------0---------------------------0---
-----0h2-------------2-----------2---------------
-3-----------------------------------------------
-------------------------------------------------

-------------------------3---1-------0-----------
-------------1-------------------------------1---
---------------------0---------------------------
---------0---------------------------------------
-2-----------------------------------------------
-------------------------------------------------

-------------------------1---0-------------------
-------------1-----------------------1-----------
---------0-------0-------------------------------
-----0h2-------------2-----------------------2---
-0-----------------------------------------------
-------------------------------------------------

-------------------------------------------------
-----------------0h1-----1h3-----1---------------
---------0h2---------------------------------0---
-------3-----------------------------------------
-----3-------------------------------------------
-1-----------------------------------------------


Strum/Pluck the following chords in a Bass-Line then Treble arrangement:

E  3  3  3  3
B  1  1  1  1
G  0  0  0  2
D  2  0  2  1
A  3  2  0  3
E  0  0  0  1

For Example, I like doing this plucking:
-------------3-----------3-----------3-----------
-------------1-----------1-----------1-----------
---------0-----------------------------------0---
-------------------------------------------------
-3-------------------3-----------3---------------
-------------------------------------------------

-------------3-----------3-----------3-----------
-------------1-----------1-----------1-----------
---------0-----------------------------------0---
-------------------------------------------------
-2-------------------2-----------2---------------
-------------------------------------------------

-------------3-----------3-----------3-----------
-------------1-----------1-----------1-----------
---------0-----------------------------------0---
-------------------------------------------------
-0-------------------0-----------0---------------
-------------------------------------------------

-------------3-----------3-----------3-----------
-------------1-----------1-----------1-----------
---------2-----------------------------------2---
-------------------------------------------------
-------------------------------------------------
-1-------------------1-----------1---------------


The whole song is a variation of these primary parts


The second guitar part is a variation of plucking 
G, D/F#, Em, and C9 on the capo 5
Bass-Line progression to treble notes



tabbed by CFTOO, email me if you have questions. 
The messaging system's in ChristianGuitar.org under username CFTOO

Comments about this tab

shongsta - 2006-02-16

This is a great tab...its pretty much perfect, im just having trouble playing it because i dont know where to put my fingers at the 13321 part.....


SmokeyTheBear56 - 2006-06-02

Hey great tab, just wunna say thanks by the way for taking the time to tab it out...helps alot, god bless


Add a comment/correction

Complimentary Christian Ringtones
Dadamobile and CGR have teamed up to bring your favorite Christian artists right to your phone. Sign up today and get 10 complementary ringtones!
Tab Country
Did you know CGR has a sister site w/ country guitar tabs? Well we do! Its called Tab Country. It has a great archive with a lot of country tabs.
Rockin Tabs
Are you looking for a site that has rock guitar tabs? Then Rockintabs.com is the place for you. It is a budding site with many rock guitar tabs. Submit your tab today.
Tab Gallery
Tab Gallery has a compilation of christian, rock, and country tabs all in one place. Come visit us.